  0
SECTION
  2
HEADER
  9
$ACADVER
  1
AC1015
  9
$ACADMAINTVER
 70
     6
  9
$DWGCODEPAGE
  3
ANSI_1254
  9
$INSBASE
 10
0.0
 20
0.0
 30
0.0
  9
$EXTMIN
 10
0.0
 20
0.0
 30
0.0
  9
$EXTMAX
 10
279.4
 20
215.9
 30
0.0
  9
$LIMMIN
 10
0.0
 20
0.0
  9
$LIMMAX
 10
279.4
 20
215.9
  9
$ORTHOMODE
 70
     0
  9
$REGENMODE
 70
     1
  9
$FILLMODE
 70
     1
  9
$QTEXTMODE
 70
     0
  9
$MIRRTEXT
 70
     1
  9
$LTSCALE
 40
1.0
  9
$ATTMODE
 70
     1
  9
$TEXTSIZE
 40
3.5
  9
$TRACEWID
 40
1.0
  9
$TEXTSTYLE
  7
Standard
  9
$CLAYER
  8
0
  9
$CELTYPE
  6
ByLayer
  9
$CECOLOR
 62
   256
  9
$CELTSCALE
 40
1.0
  9
$DISPSILH
 70
     0
  9
$DIMSCALE
 40
1.0
  9
$DIMASZ
 40
3.5
  9
$DIMEXO
 40
1.0
  9
$DIMDLI
 40
3.75
  9
$DIMRND
 40
0.0
  9
$DIMDLE
 40
0.0
  9
$DIMEXE
 40
1.0
  9
$DIMTP
 40
0.0
  9
$DIMTM
 40
0.0
  9
$DIMTXT
 40
3.5
  9
$DIMCEN
 40
2.5
  9
$DIMTSZ
 40
0.0
  9
$DIMTOL
 70
     0
  9
$DIMLIM
 70
     0
  9
$DIMTIH
 70
     1
  9
$DIMTOH
 70
     1
  9
$DIMSE1
 70
     0
  9
$DIMSE2
 70
     0
  9
$DIMTAD
 70
     1
  9
$DIMZIN
 70
     0
  9
$DIMBLK
  1

  9
$DIMASO
 70
     1
  9
$DIMSHO
 70
     1
  9
$DIMPOST
  1

  9
$DIMAPOST
  1

  9
$DIMALT
 70
     0
  9
$DIMALTD
 70
     3
  9
$DIMALTF
 40
0.0393700787
  9
$DIMLFAC
 40
1.0
  9
$DIMTOFL
 70
     1
  9
$DIMTVP
 40
0.0
  9
$DIMTIX
 70
     0
  9
$DIMSOXD
 70
     0
  9
$DIMSAH
 70
     0
  9
$DIMBLK1
  1

  9
$DIMBLK2
  1

  9
$DIMSTYLE
  2
ISO-25
  9
$DIMCLRD
 70
     0
  9
$DIMCLRE
 70
     0
  9
$DIMCLRT
 70
     0
  9
$DIMTFAC
 40
1.0
  9
$DIMGAP
 40
1.524
  9
$DIMJUST
 70
     0
  9
$DIMSD1
 70
     0
  9
$DIMSD2
 70
     0
  9
$DIMTOLJ
 70
     0
  9
$DIMTZIN
 70
     0
  9
$DIMALTZ
 70
     0
  9
$DIMALTTZ
 70
     0
  9
$DIMUPT
 70
     0
  9
$DIMDEC
 70
     2
  9
$DIMTDEC
 70
     2
  9
$DIMALTU
 70
     2
  9
$DIMALTTD
 70
     3
  9
$DIMTXSTY
  7
Standard
  9
$DIMAUNIT
 70
     0
  9
$DIMADEC
 70
     2
  9
$DIMALTRND
 40
0.0
  9
$DIMAZIN
 70
     0
  9
$DIMDSEP
 70
    44
  9
$DIMATFIT
 70
     3
  9
$DIMFRAC
 70
     0
  9
$DIMLDRBLK
  1

  9
$DIMLUNIT
 70
     2
  9
$DIMLWD
 70
    -2
  9
$DIMLWE
 70
    -2
  9
$DIMTMOVE
 70
     0
  9
$LUNITS
 70
     2
  9
$LUPREC
 70
     2
  9
$SKETCHINC
 40
1.0
  9
$FILLETRAD
 40
10.0
  9
$AUNITS
 70
     0
  9
$AUPREC
 70
     2
  9
$MENU
  1
.
  9
$ELEVATION
 40
0.0
  9
$PELEVATION
 40
0.0
  9
$THICKNESS
 40
0.0
  9
$LIMCHECK
 70
     0
  9
$CHAMFERA
 40
0.0
  9
$CHAMFERB
 40
0.0
  9
$CHAMFERC
 40
0.0
  9
$CHAMFERD
 40
0.0
  9
$SKPOLY
 70
     0
  9
$TDCREATE
 40
2459741.614600463
  9
$TDUCREATE
 40
2459741.489600463
  9
$TDUPDATE
 40
2459741.614600648
  9
$TDUUPDATE
 40
2459741.489600648
  9
$TDINDWG
 40
0.0000000116
  9
$TDUSRTIMER
 40
0.0000000116
  9
$USRTIMER
 70
     1
  9
$ANGBASE
 50
0.0
  9
$ANGDIR
 70
     0
  9
$PDMODE
 70
     0
  9
$PDSIZE
 40
-1.0
  9
$PLINEWID
 40
0.0
  9
$SPLFRAME
 70
     0
  9
$SPLINETYPE
 70
     6
  9
$SPLINESEGS
 70
     8
  9
$HANDSEED
  5
141
  9
$SURFTAB1
 70
     6
  9
$SURFTAB2
 70
     6
  9
$SURFTYPE
 70
     6
  9
$SURFU
 70
     6
  9
$SURFV
 70
     6
  9
$UCSBASE
  2

  9
$UCSNAME
  2

  9
$UCSORG
 10
0.0
 20
0.0
 30
0.0
  9
$UCSXDIR
 10
1.0
 20
0.0
 30
0.0
  9
$UCSYDIR
 10
0.0
 20
1.0
 30
0.0
  9
$UCSORTHOREF
  2

  9
$UCSORTHOVIEW
 70
     0
  9
$UCSORGTOP
 10
0.0
 20
0.0
 30
0.0
  9
$UCSORGBOTTOM
 10
0.0
 20
0.0
 30
0.0
  9
$UCSORGLEFT
 10
0.0
 20
0.0
 30
0.0
  9
$UCSORGRIGHT
 10
0.0
 20
0.0
 30
0.0
  9
$UCSORGFRONT
 10
0.0
 20
0.0
 30
0.0
  9
$UCSORGBACK
 10
0.0
 20
0.0
 30
0.0
  9
$PUCSBASE
  2

  9
$PUCSNAME
  2

  9
$PUCSORG
 10
0.0
 20
0.0
 30
0.0
  9
$PUCSXDIR
 10
1.0
 20
0.0
 30
0.0
  9
$PUCSYDIR
 10
0.0
 20
1.0
 30
0.0
  9
$PUCSORTHOREF
  2

  9
$PUCSORTHOVIEW
 70
     0
  9
$PUCSORGTOP
 10
0.0
 20
0.0
 30
0.0
  9
$PUCSORGBOTTOM
 10
0.0
 20
0.0
 30
0.0
  9
$PUCSORGLEFT
 10
0.0
 20
0.0
 30
0.0
  9
$PUCSORGRIGHT
 10
0.0
 20
0.0
 30
0.0
  9
$PUCSORGFRONT
 10
0.0
 20
0.0
 30
0.0
  9
$PUCSORGBACK
 10
0.0
 20
0.0
 30
0.0
  9
$USERI1
 70
     0
  9
$USERI2
 70
     0
  9
$USERI3
 70
     0
  9
$USERI4
 70
     0
  9
$USERI5
 70
     0
  9
$USERR1
 40
0.0
  9
$USERR2
 40
0.0
  9
$USERR3
 40
0.0
  9
$USERR4
 40
0.0
  9
$USERR5
 40
0.0
  9
$WORLDVIEW
 70
     1
  9
$SHADEDGE
 70
     3
  9
$SHADEDIF
 70
    70
  9
$TILEMODE
 70
     1
  9
$MAXACTVP
 70
    64
  9
$PINSBASE
 10
0.0
 20
0.0
 30
0.0
  9
$PLIMCHECK
 70
     0
  9
$PEXTMIN
 10
1.0000000000E+20
 20
1.0000000000E+20
 30
1.0000000000E+20
  9
$PEXTMAX
 10
-1.0000000000E+20
 20
-1.0000000000E+20
 30
-1.0000000000E+20
  9
$PLIMMIN
 10
0.0
 20
0.0
  9
$PLIMMAX
 10
420.0
 20
297.0
  9
$UNITMODE
 70
     0
  9
$VISRETAIN
 70
     1
  9
$PLINEGEN
 70
     0
  9
$PSLTSCALE
 70
     1
  9
$TREEDEPTH
 70
  3020
  9
$CMLSTYLE
  2
Standard
  9
$CMLJUST
 70
     0
  9
$CMLSCALE
 40
20.0
  9
$PROXYGRAPHICS
 70
     1
  9
$MEASUREMENT
 70
     1
  9
$CELWEIGHT
370
    -1
  9
$ENDCAPS
280
     0
  9
$JOINSTYLE
280
     0
  9
$LWDISPLAY
290
     1
  9
$INSUNITS
 70
     4
  9
$HYPERLINKBASE
  1

  9
$STYLESHEET
  1

  9
$XEDIT
290
     1
  9
$CEPSNTYPE
380
     0
  9
$PSTYLEMODE
290
     1
  9
$FINGERPRINTGUID
  2
{f490d29a-9389-4232-a5e9-3e512fd8c704}
  9
$VERSIONGUID
  2
{FAEB1C32-E019-11D5-929B-00C0DF256EC4}
  9
$EXTNAMES
290
     1
  9
$PSVPSCALE
 40
0.0
  9
$OLESTARTUP
290
     0
  0
ENDSEC
  0
SECTION
  2
CLASSES
  0
CLASS
  1
ACDBDICTIONARYWDFLT
  2
AcDbDictionaryWithDefault
  3
ObjectDBX Classes
 90
        0
280
     0
281
     0
  0
CLASS
  1
VISUALSTYLE
  2
AcDbVisualStyle
  3
ObjectDBX Classes
 90
     4095
280
     0
281
     0
  0
CLASS
  1
MATERIAL
  2
AcDbMaterial
  3
ObjectDBX Classes
 90
     1153
280
     0
281
     0
  0
CLASS
  1
SCALE
  2
AcDbScale
  3
ObjectDBX Classes
 90
     1153
280
     0
281
     0
  0
CLASS
  1
TABLESTYLE
  2
AcDbTableStyle
  3
ObjectDBX Classes
 90
     4095
280
     0
281
     0
  0
CLASS
  1
MLEADERSTYLE
  2
AcDbMLeaderStyle
  3
ACDB_MLEADERSTYLE_CLASS
 90
     4095
280
     0
281
     0
  0
CLASS
  1
SUN
  2
AcDbSun
  3
SCENEOE
 90
     1153
280
     0
281
     0
  0
CLASS
  1
ACDBPLACEHOLDER
  2
AcDbPlaceHolder
  3
ObjectDBX Classes
 90
        0
280
     0
281
     0
  0
CLASS
  1
LAYOUT
  2
AcDbLayout
  3
ObjectDBX Classes
 90
        0
280
     0
281
     0
  0
ENDSEC
  0
SECTION
  2
TABLES
  0
TABLE
  2
VPORT
  5
8
330
0
100
AcDbSymbolTable
 70
     1
  0
VPORT
  5
29
330
8
100
AcDbSymbolTableRecord
100
AcDbViewportTableRecord
  2
*Active
 70
     0
 10
0.0
 20
0.0
 11
1.0
 21
1.0
 12
139.7
 22
107.95
 13
0.0
 23
0.0
 14
10.0
 24
10.0
 15
10.0
 25
10.0
 16
0.0
 26
0.0
 36
1.0
 17
0.0
 27
0.0
 37
0.0
 40
215.9
 41
1.2941176471
 42
50.0
 43
0.0
 44
0.0
 50
0.0
 51
0.0
 71
     0
 72
  2000
 73
     1
 74
     3
 75
     0
 76
     0
 77
     0
 78
     0
281
     0
 65
     1
110
0.0
120
0.0
130
0.0
111
1.0
121
0.0
131
0.0
112
0.0
122
1.0
132
0.0
 79
     0
146
0.0
  0
ENDTAB
  0
TABLE
  2
LTYPE
  5
5
330
0
100
AcDbSymbolTable
 70
     6
  0
LTYPE
  5
14
330
5
100
AcDbSymbolTableRecord
100
AcDbLinetypeTableRecord
  2
ByBlock
 70
     0
  3

 72
    65
 73
     0
 40
0.0
  0
LTYPE
  5
15
330
5
100
AcDbSymbolTableRecord
100
AcDbLinetypeTableRecord
  2
ByLayer
 70
     0
  3

 72
    65
 73
     0
 40
0.0
  0
LTYPE
  5
16
330
5
100
AcDbSymbolTableRecord
100
AcDbLinetypeTableRecord
  2
Continuous
 70
     0
  3
Solid line
 72
    65
 73
     0
 40
0.0
  0
LTYPE
  5
6E
330
5
100
AcDbSymbolTableRecord
100
AcDbLinetypeTableRecord
  2
HIDDEN
 70
     0
  3
Hidden __ __ __ __ __ __ __ __ __ __ __ __ __ __
 72
    65
 73
     2
 40
1.905
 49
1.27
 74
     0
 49
-0.635
 74
     0
  0
LTYPE
  5
6F
330
5
100
AcDbSymbolTableRecord
100
AcDbLinetypeTableRecord
  2
PHANTOM
 70
     0
  3
Phantom ______  __  __  ______  __  __  ______
 72
    65
 73
     6
 40
12.7
 49
6.35
 74
     0
 49
-1.27
 74
     0
 49
1.27
 74
     0
 49
-1.27
 74
     0
 49
1.27
 74
     0
 49
-1.27
 74
     0
  0
LTYPE
  5
70
330
5
100
AcDbSymbolTableRecord
100
AcDbLinetypeTableRecord
  2
CENTER
 70
     0
  3
Center ____ _ ____ _ ____ _ ____ _ ____ _ ____
 72
    65
 73
     4
 40
10.16
 49
6.35
 74
     0
 49
-1.27
 74
     0
 49
1.27
 74
     0
 49
-1.27
 74
     0
  0
LTYPE
  5
71
330
5
100
AcDbSymbolTableRecord
100
AcDbLinetypeTableRecord
  2
CENTERX2
 70
     0
  3
Center (2x) ________  __  ________  __  _____
 72
    65
 73
     4
 40
20.32
 49
12.7
 74
     0
 49
-2.54
 74
     0
 49
2.54
 74
     0
 49
-2.54
 74
     0
  0
LTYPE
  5
72
330
5
100
AcDbSymbolTableRecord
100
AcDbLinetypeTableRecord
  2
DOT2
 70
     0
  3
Dot (.5x) ........................................
 72
    65
 73
     2
 40
0.635
 49
0.0
 74
     0
 49
-0.635
 74
     0
  0
ENDTAB
  0
TABLE
  2
LAYER
  5
2
330
0
100
AcDbSymbolTable
 70
    17
  0
LAYER
  5
10
330
2
100
AcDbSymbolTableRecord
100
AcDbLayerTableRecord
  2
0
 70
     0
 62
     7
  6
Continuous
370
    -3
390
F
  0
LAYER
  5
73
330
2
100
AcDbSymbolTableRecord
100
AcDbLayerTableRecord
  2
FORMAT
 70
     0
 62
     7
  6
Continuous
370
    -3
390
F
  0
LAYER
  5
74
330
2
100
AcDbSymbolTableRecord
100
AcDbLayerTableRecord
  2
YARDIMCI_GEOMETRI
 70
     0
 62
    -6
  6
Continuous
290
     0
370
    -3
390
F
  0
LAYER
  5
75
330
2
100
AcDbSymbolTableRecord
100
AcDbLayerTableRecord
  2
SAYFA_CERCEVESI
 70
     0
 62
     7
  6
Continuous
370
    25
390
F
  0
LAYER
  5
76
330
2
100
AcDbSymbolTableRecord
100
AcDbLayerTableRecord
  2
ANTET
 70
     0
 62
     7
  6
Continuous
370
    -3
390
F
  0
LAYER
  5
77
330
2
100
AcDbSymbolTableRecord
100
AcDbLayerTableRecord
  2
OLCU
 70
     0
 62
   150
  6
Continuous
370
    -3
390
F
  0
LAYER
  5
78
330
2
100
AcDbSymbolTableRecord
100
AcDbLayerTableRecord
  2
METIN
 70
     0
 62
    96
  6
Continuous
370
    -3
390
F
  0
LAYER
  5
79
330
2
100
AcDbSymbolTableRecord
100
AcDbLayerTableRecord
  2
BALON
 70
     0
 62
     5
  6
Continuous
370
    -3
390
F
  0
LAYER
  5
7A
330
2
100
AcDbSymbolTableRecord
100
AcDbLayerTableRecord
  2
VURGU
 70
     0
 62
     7
  6
Continuous
370
    -3
390
F
  0
LAYER
  5
7B
330
2
100
AcDbSymbolTableRecord
100
AcDbLayerTableRecord
  2
SILIK
 70
     0
 62
     7
  6
Continuous
370
    -3
390
F
  0
LAYER
  5
7C
330
2
100
AcDbSymbolTableRecord
100
AcDbLayerTableRecord
  2
MODEL
 70
     0
 62
     7
  6
Continuous
370
    -3
390
F
  0
LAYER
  5
7D
330
2
100
AcDbSymbolTableRecord
100
AcDbLayerTableRecord
  2
DETAYLANDıRMA
 70
     0
 62
   190
  6
Continuous
370
    -3
390
F
  0
LAYER
  5
7E
330
2
100
AcDbSymbolTableRecord
100
AcDbLayerTableRecord
  2
TOLERANS
 70
     0
 62
   230
  6
Continuous
370
    -3
390
F
  0
LAYER
  5
7F
330
2
100
AcDbSymbolTableRecord
100
AcDbLayerTableRecord
  2
MERKEZ_CIZGILERI
 70
     0
 62
    30
  6
Continuous
370
    -3
390
F
  0
LAYER
  5
80
330
2
100
AcDbSymbolTableRecord
100
AcDbLayerTableRecord
  2
KESIT-DETAY_CIZGILERI
 70
     0
 62
     7
  6
Continuous
370
    -3
390
F
  0
LAYER
  5
81
330
2
100
AcDbSymbolTableRecord
100
AcDbLayerTableRecord
  2
\U+041E\U+0421\U+0415\U+0412\U+042B\U+0415
 70
     0
 62
     7
  6
Continuous
370
    -3
390
F
  0
LAYER
  5
82
330
2
100
AcDbSymbolTableRecord
100
AcDbLayerTableRecord
  2
\U+0412\U+041E\U+0414\U+042F\U+041D\U+042B\U+0415_\U+0417\U+041D\U+0410\U+041A\U+0418
 70
     0
 62
    11
  6
Continuous
370
    -3
390
F
  0
ENDTAB
  0
TABLE
  2
STYLE
  5
3
330
0
100
AcDbSymbolTable
 70
     1
  0
STYLE
  5
11
330
3
100
AcDbSymbolTableRecord
100
AcDbTextStyleTableRecord
  2
Standard
 70
     0
 40
0.0
 41
1.0
 50
0.0
 71
     0
 42
3.5
  3
txt
  4

  0
ENDTAB
  0
TABLE
  2
VIEW
  5
6
330
0
100
AcDbSymbolTable
 70
     0
  0
ENDTAB
  0
TABLE
  2
UCS
  5
7
330
0
100
AcDbSymbolTable
 70
     0
  0
ENDTAB
  0
TABLE
  2
APPID
  5
9
330
0
100
AcDbSymbolTable
 70
     1
  0
APPID
  5
12
330
9
100
AcDbSymbolTableRecord
100
AcDbRegAppTableRecord
  2
ACAD
 70
     0
  0
ENDTAB
  0
TABLE
  2
DIMSTYLE
  5
A
330
0
100
AcDbSymbolTable
 70
     1
100
AcDbDimStyleTable
  0
DIMSTYLE
105
27
330
A
100
AcDbSymbolTableRecord
100
AcDbDimStyleTableRecord
  2
ISO-25
 70
     0
 41
2.5
 42
0.625
 43
3.75
 44
1.25
 73
     0
 74
     0
 77
     1
 78
     8
140
2.5
141
2.5
143
0.0393700787
147
0.625
171
     3
172
     1
178
     0
271
     2
272
     2
274
     3
278
    44
283
     0
284
     8
340
11
  0
ENDTAB
  0
TABLE
  2
BLOCK_RECORD
  5
1
330
0
100
AcDbSymbolTable
 70
     5
  0
BLOCK_RECORD
  5
1F
330
1
100
AcDbSymbolTableRecord
100
AcDbBlockTableRecord
  2
*Model_Space
340
22
  0
BLOCK_RECORD
  5
1B
330
1
100
AcDbSymbolTableRecord
100
AcDbBlockTableRecord
  2
*Paper_Space
340
1E
  0
BLOCK_RECORD
  5
23
330
1
100
AcDbSymbolTableRecord
100
AcDbBlockTableRecord
  2
*Paper_Space0
340
26
  0
BLOCK_RECORD
  5
C9
330
1
100
AcDbSymbolTableRecord
100
AcDbBlockTableRecord
  2
SW_CENTERMARKSYMBOL_0
340
0
102
{BLKREFS
331
D4
102
}
  0
BLOCK_RECORD
  5
F4
330
1
100
AcDbSymbolTableRecord
100
AcDbBlockTableRecord
  2
SW_CENTERMARKSYMBOL_1
340
0
102
{BLKREFS
331
FF
102
}
  0
BLOCK_RECORD
  5
100
330
1
100
AcDbSymbolTableRecord
100
AcDbBlockTableRecord
  2
SW_CENTERMARKSYMBOL_2
340
0
102
{BLKREFS
331
10B
102
}
  0
BLOCK_RECORD
  5
10C
330
1
100
AcDbSymbolTableRecord
100
AcDbBlockTableRecord
  2
SW_CENTERMARKSYMBOL_3
340
0
102
{BLKREFS
331
117
102
}
  0
ENDTAB
  0
ENDSEC
  0
SECTION
  2
BLOCKS
  0
BLOCK
  5
20
330
1F
100
AcDbEntity
  8
0
100
AcDbBlockBegin
  2
*Model_Space
 70
     0
 10
0.0
 20
0.0
 30
0.0
  3
*Model_Space
  1

  0
ENDBLK
  5
21
330
1F
100
AcDbEntity
  8
0
100
AcDbBlockEnd
  0
BLOCK
  5
1C
330
1B
100
AcDbEntity
 67
     1
  8
0
100
AcDbBlockBegin
  2
*Paper_Space
 70
     0
 10
0.0
 20
0.0
 30
0.0
  3
*Paper_Space
  1

  0
ENDBLK
  5
1D
330
1B
100
AcDbEntity
 67
     1
  8
0
100
AcDbBlockEnd
  0
BLOCK
  5
24
330
23
100
AcDbEntity
  8
0
100
AcDbBlockBegin
  2
*Paper_Space0
 70
     0
 10
0.0
 20
0.0
 30
0.0
  3
*Paper_Space0
  1

  0
ENDBLK
  5
25
330
23
100
AcDbEntity
  8
0
100
AcDbBlockEnd
  0
BLOCK
  5
CA
330
C9
100
AcDbEntity
  8
0
100
AcDbBlockBegin
  2
SW_CENTERMARKSYMBOL_0
 70
     0
 10
0.0
 20
0.0
 30
0.0
  3
SW_CENTERMARKSYMBOL_0
  1

  0
LINE
  5
CC
330
C9
100
AcDbEntity
  8
FORMAT
 62
     0
100
AcDbLine
 10
0.0
 20
0.0
 30
0.0
 11
0.0
 21
2.5
 31
0.0
  0
LINE
  5
CD
330
C9
100
AcDbEntity
  8
FORMAT
 62
     0
100
AcDbLine
 10
0.0
 20
0.0
 30
0.0
 11
-2.5
 21
0.0
 31
0.0
  0
LINE
  5
CE
330
C9
100
AcDbEntity
  8
FORMAT
 62
     0
100
AcDbLine
 10
0.0
 20
0.0
 30
0.0
 11
0.0
 21
-2.5
 31
0.0
  0
LINE
  5
CF
330
C9
100
AcDbEntity
  8
FORMAT
 62
     0
100
AcDbLine
 10
0.0
 20
0.0
 30
0.0
 11
2.5
 21
0.0
 31
0.0
  0
LINE
  5
D0
330
C9
100
AcDbEntity
  8
FORMAT
 62
     0
100
AcDbLine
 10
0.0
 20
5.0
 30
0.0
 11
0.0
 21
15.5
 31
0.0
  0
LINE
  5
D1
330
C9
100
AcDbEntity
  8
FORMAT
 62
     0
100
AcDbLine
 10
-5.0
 20
0.0
 30
0.0
 11
-15.5
 21
0.0
 31
0.0
  0
LINE
  5
D2
330
C9
100
AcDbEntity
  8
FORMAT
 62
     0
100
AcDbLine
 10
0.0
 20
-5.0
 30
0.0
 11
0.0
 21
-15.5
 31
0.0
  0
LINE
  5
D3
330
C9
100
AcDbEntity
  8
FORMAT
 62
     0
100
AcDbLine
 10
5.0
 20
0.0
 30
0.0
 11
15.5
 21
0.0
 31
0.0
  0
ENDBLK
  5
CB
330
C9
100
AcDbEntity
  8
0
100
AcDbBlockEnd
  0
BLOCK
  5
F5
330
F4
100
AcDbEntity
  8
0
100
AcDbBlockBegin
  2
SW_CENTERMARKSYMBOL_1
 70
     0
 10
0.0
 20
0.0
 30
0.0
  3
SW_CENTERMARKSYMBOL_1
  1

  0
LINE
  5
F7
330
F4
100
AcDbEntity
  8
FORMAT
 62
     0
100
AcDbLine
 10
0.0
 20
0.0
 30
0.0
 11
0.0
 21
2.5
 31
0.0
  0
LINE
  5
F8
330
F4
100
AcDbEntity
  8
FORMAT
 62
     0
100
AcDbLine
 10
0.0
 20
0.0
 30
0.0
 11
-2.5
 21
0.0
 31
0.0
  0
LINE
  5
F9
330
F4
100
AcDbEntity
  8
FORMAT
 62
     0
100
AcDbLine
 10
0.0
 20
0.0
 30
0.0
 11
0.0
 21
-2.5
 31
0.0
  0
LINE
  5
FA
330
F4
100
AcDbEntity
  8
FORMAT
 62
     0
100
AcDbLine
 10
0.0
 20
0.0
 30
0.0
 11
2.5
 21
0.0
 31
0.0
  0
LINE
  5
FB
330
F4
100
AcDbEntity
  8
FORMAT
 62
     0
100
AcDbLine
 10
0.0
 20
5.0
 30
0.0
 11
0.0
 21
18.5
 31
0.0
  0
LINE
  5
FC
330
F4
100
AcDbEntity
  8
FORMAT
 62
     0
100
AcDbLine
 10
-5.0
 20
0.0
 30
0.0
 11
-18.5
 21
0.0
 31
0.0
  0
LINE
  5
FD
330
F4
100
AcDbEntity
  8
FORMAT
 62
     0
100
AcDbLine
 10
0.0
 20
-5.0
 30
0.0
 11
0.0
 21
-18.5
 31
0.0
  0
LINE
  5
FE
330
F4
100
AcDbEntity
  8
FORMAT
 62
     0
100
AcDbLine
 10
5.0
 20
0.0
 30
0.0
 11
18.5
 21
0.0
 31
0.0
  0
ENDBLK
  5
F6
330
F4
100
AcDbEntity
  8
0
100
AcDbBlockEnd
  0
BLOCK
  5
101
330
100
100
AcDbEntity
  8
0
100
AcDbBlockBegin
  2
SW_CENTERMARKSYMBOL_2
 70
     0
 10
0.0
 20
0.0
 30
0.0
  3
SW_CENTERMARKSYMBOL_2
  1

  0
LINE
  5
103
330
100
100
AcDbEntity
  8
FORMAT
 62
     0
100
AcDbLine
 10
0.0
 20
0.0
 30
0.0
 11
0.0
 21
2.5
 31
0.0
  0
LINE
  5
104
330
100
100
AcDbEntity
  8
FORMAT
 62
     0
100
AcDbLine
 10
0.0
 20
0.0
 30
0.0
 11
-2.5
 21
0.0
 31
0.0
  0
LINE
  5
105
330
100
100
AcDbEntity
  8
FORMAT
 62
     0
100
AcDbLine
 10
0.0
 20
0.0
 30
0.0
 11
0.0
 21
-2.5
 31
0.0
  0
LINE
  5
106
330
100
100
AcDbEntity
  8
FORMAT
 62
     0
100
AcDbLine
 10
0.0
 20
0.0
 30
0.0
 11
2.5
 21
0.0
 31
0.0
  0
LINE
  5
107
330
100
100
AcDbEntity
  8
FORMAT
 62
     0
100
AcDbLine
 10
0.0
 20
5.0
 30
0.0
 11
0.0
 21
9.5
 31
0.0
  0
LINE
  5
108
330
100
100
AcDbEntity
  8
FORMAT
 62
     0
100
AcDbLine
 10
-5.0
 20
0.0
 30
0.0
 11
-9.5
 21
0.0
 31
0.0
  0
LINE
  5
109
330
100
100
AcDbEntity
  8
FORMAT
 62
     0
100
AcDbLine
 10
0.0
 20
-5.0
 30
0.0
 11
0.0
 21
-9.5
 31
0.0
  0
LINE
  5
10A
330
100
100
AcDbEntity
  8
FORMAT
 62
     0
100
AcDbLine
 10
5.0
 20
0.0
 30
0.0
 11
9.5
 21
0.0
 31
0.0
  0
ENDBLK
  5
102
330
100
100
AcDbEntity
  8
0
100
AcDbBlockEnd
  0
BLOCK
  5
10D
330
10C
100
AcDbEntity
  8
0
100
AcDbBlockBegin
  2
SW_CENTERMARKSYMBOL_3
 70
     0
 10
0.0
 20
0.0
 30
0.0
  3
SW_CENTERMARKSYMBOL_3
  1

  0
LINE
  5
10F
330
10C
100
AcDbEntity
  8
FORMAT
 62
     0
100
AcDbLine
 10
0.0
 20
0.0
 30
0.0
 11
0.0
 21
2.5
 31
0.0
  0
LINE
  5
110
330
10C
100
AcDbEntity
  8
FORMAT
 62
     0
100
AcDbLine
 10
0.0
 20
0.0
 30
0.0
 11
-2.5
 21
0.0
 31
0.0
  0
LINE
  5
111
330
10C
100
AcDbEntity
  8
FORMAT
 62
     0
100
AcDbLine
 10
0.0
 20
0.0
 30
0.0
 11
0.0
 21
-2.5
 31
0.0
  0
LINE
  5
112
330
10C
100
AcDbEntity
  8
FORMAT
 62
     0
100
AcDbLine
 10
0.0
 20
0.0
 30
0.0
 11
2.5
 21
0.0
 31
0.0
  0
LINE
  5
113
330
10C
100
AcDbEntity
  8
FORMAT
 62
     0
100
AcDbLine
 10
0.0
 20
5.0
 30
0.0
 11
0.0
 21
9.5
 31
0.0
  0
LINE
  5
114
330
10C
100
AcDbEntity
  8
FORMAT
 62
     0
100
AcDbLine
 10
-5.0
 20
0.0
 30
0.0
 11
-9.5
 21
0.0
 31
0.0
  0
LINE
  5
115
330
10C
100
AcDbEntity
  8
FORMAT
 62
     0
100
AcDbLine
 10
0.0
 20
-5.0
 30
0.0
 11
0.0
 21
-9.5
 31
0.0
  0
LINE
  5
116
330
10C
100
AcDbEntity
  8
FORMAT
 62
     0
100
AcDbLine
 10
5.0
 20
0.0
 30
0.0
 11
9.5
 21
0.0
 31
0.0
  0
ENDBLK
  5
10E
330
10C
100
AcDbEntity
  8
0
100
AcDbBlockEnd
  0
ENDSEC
  0
SECTION
  2
ENTITIES
  0
LINE
  5
83
330
1F
100
AcDbEntity
  8
0
  6
Continuous
 62
     7
370
    25
100
AcDbLine
 10
168.505399775
 20
-45.4506
 30
0.0
 11
218.505399775
 21
-45.4506
 31
0.0
  0
LINE
  5
84
330
1F
100
AcDbEntity
  8
0
  6
Continuous
 62
     7
370
    25
100
AcDbLine
 10
58.505399775
 20
-45.4506
 30
0.0
 11
108.505399775
 21
-45.4506
 31
0.0
  0
LINE
  5
85
330
1F
100
AcDbEntity
  8
0
  6
Continuous
 62
     7
370
    25
100
AcDbLine
 10
61.5948249386
 20
193.5494
 30
0.0
 11
58.505399775
 21
193.5494
 31
0.0
  0
LINE
  5
86
330
1F
100
AcDbEntity
  8
0
  6
Continuous
 62
     7
370
    25
100
AcDbLine
 10
122.5581913981
 20
193.5494
 30
0.0
 11
75.4960221301
 21
193.5494
 31
0.0
  0
LINE
  5
87
330
1F
100
AcDbEntity
  8
0
  6
Continuous
 62
     7
370
    25
100
AcDbLine
 10
201.5948249386
 20
193.5494
 30
0.0
 11
154.5010877721
 21
193.5494
 31
0.0
  0
LINE
  5
88
330
1F
100
AcDbEntity
  8
0
  6
Continuous
 62
     7
370
    25
100
AcDbLine
 10
218.505399775
 20
193.5494
 30
0.0
 11
215.4960221301
 21
193.5494
 31
0.0
  0
LINE
  5
89
330
1F
100
AcDbEntity
  8
0
  6
Continuous
 62
     7
370
    25
100
AcDbLine
 10
122.505399775
 20
241.5494
 30
0.0
 11
122.505399775
 21
193.5423527084
 31
0.0
  0
LINE
  5
8A
330
1F
100
AcDbEntity
  8
0
  6
Continuous
 62
     7
370
    25
100
AcDbLine
 10
154.505399775
 20
193.5488298186
 30
0.0
 11
154.505399775
 21
241.5494
 31
0.0
  0
LINE
  5
8B
330
1F
100
AcDbEntity
  8
0
  6
Continuous
 62
     7
370
    25
100
AcDbLine
 10
61.505399775
 20
208.5494
 30
0.0
 11
61.505399775
 21
193.5442244739
 31
0.0
  0
LINE
  5
8C
330
1F
100
AcDbEntity
  8
0
  6
Continuous
 62
     7
370
    25
100
AcDbLine
 10
75.505399775
 20
193.5488786766
 30
0.0
 11
75.505399775
 21
208.5494
 31
0.0
  0
LINE
  5
8D
330
1F
100
AcDbEntity
  8
0
  6
Continuous
 62
     7
370
    25
100
AcDbLine
 10
201.505399775
 20
208.5494
 30
0.0
 11
201.505399775
 21
193.5442244739
 31
0.0
  0
LINE
  5
8E
330
1F
100
AcDbEntity
  8
0
  6
Continuous
 62
     7
370
    25
100
AcDbLine
 10
215.505399775
 20
193.5488786766
 30
0.0
 11
215.505399775
 21
208.5494
 31
0.0
  0
LINE
  5
8F
330
1F
100
AcDbEntity
  8
0
  6
Continuous
 62
     7
370
    25
100
AcDbLine
 10
218.505399775
 20
76.0494
 30
0.0
 11
58.505399775
 21
76.0494
 31
0.0
  0
LINE
  5
90
330
1F
100
AcDbEntity
  8
0
  6
Continuous
 62
     7
370
    25
100
AcDbLine
 10
58.505399775
 20
83.0494
 30
0.0
 11
58.505399775
 21
76.0494
 31
0.0
  0
LINE
  5
91
330
1F
100
AcDbEntity
  8
0
  6
Continuous
 62
     7
370
    25
100
AcDbLine
 10
218.505399775
 20
83.0494
 30
0.0
 11
58.505399775
 21
83.0494
 31
0.0
  0
LINE
  5
92
330
1F
100
AcDbEntity
  8
0
  6
Continuous
 62
     7
370
    25
100
AcDbLine
 10
218.505399775
 20
83.0494
 30
0.0
 11
218.505399775
 21
76.0494
 31
0.0
  0
LINE
  5
93
330
1F
100
AcDbEntity
  8
0
  6
Continuous
 62
     7
370
    25
100
AcDbLine
 10
58.505399775
 20
72.0494
 30
0.0
 11
58.505399775
 21
65.0494
 31
0.0
  0
LINE
  5
94
330
1F
100
AcDbEntity
  8
0
  6
Continuous
 62
     7
370
    25
100
AcDbLine
 10
218.505399775
 20
72.0494
 30
0.0
 11
58.505399775
 21
72.0494
 31
0.0
  0
LINE
  5
95
330
1F
100
AcDbEntity
  8
0
  6
Continuous
 62
     7
370
    25
100
AcDbLine
 10
218.505399775
 20
72.0494
 30
0.0
 11
218.505399775
 21
65.0494
 31
0.0
  0
LINE
  5
96
330
1F
100
AcDbEntity
  8
0
  6
Continuous
 62
     7
370
    25
100
AcDbLine
 10
218.505399775
 20
65.0494
 30
0.0
 11
58.505399775
 21
65.0494
 31
0.0
  0
SPLINE
  5
97
330
1F
100
AcDbEntity
  8
0
  6
Continuous
 62
     7
370
    25
100
AcDbSpline
210
0.0
220
0.0
230
1.0
 70
     8
 71
     3
 72
    12
 73
     8
 74
     0
 42
0.00000001
 43
0.00000001
 40
0.0
 40
0.0
 40
0.0
 40
0.0
 40
0.214587060354157
 40
0.42916519591147
 40
0.64397487913805
 40
0.8589358385560323
 40
1.0
 40
1.0
 40
1.0
 40
1.0
 10
68.50539977502821
 20
193.3442029044014
 30
0.0
 10
67.71945036783441
 20
193.3488414039951
 30
0.0
 10
66.14758424152589
 20
193.3581182102645
 30
0.0
 10
64.04740406394379
 20
193.4232963762033
 30
0.0
 10
62.47882174839411
 20
193.4938698920281
 30
0.0
 10
61.58832725407859
 20
193.544487104085
 30
0.0
 10
61.59298102355956
 20
193.5442885160465
 30
0.0
 10
61.59482493864007
 20
193.5442098315562
 30
0.0
  0
SPLINE
  5
98
330
1F
100
AcDbEntity
  8
0
  6
Continuous
 62
     7
370
    25
100
AcDbSpline
210
0.0
220
0.0
230
1.0
 70
     8
 71
     3
 72
    13
 73
     9
 74
     0
 42
0.00000001
 43
0.00000001
 40
0.0
 40
0.0
 40
0.0
 40
0.0
 40
0.0052241450113017
 40
0.2195571623470521
 40
0.4338894400053139
 40
0.6485406273149305
 40
0.8633343881157151
 40
1.0
 40
1.0
 40
1.0
 40
1.0
 10
75.49602213008265
 20
193.5488650456034
 30
0.0
 10
75.4991416758973
 20
193.5490429669334
 30
0.0
 10
75.63024803404686
 20
193.5565205354639
 30
0.0
 10
75.16043151556104
 20
193.5288696298705
 30
0.0
 10
74.05928390139196
 20
193.4703703707984
 30
0.0
 10
72.24110454906271
 20
193.3971617923705
 30
0.0
 10
70.29032584365369
 20
193.3509649730316
 30
0.0
 10
69.00514476053047
 20
193.3460961536227
 30
0.0
 10
68.50539977502821
 20
193.3442029044014
 30
0.0
  0
SPLINE
  5
99
330
1F
100
AcDbEntity
  8
0
  6
Continuous
 62
     7
370
    25
100
AcDbSpline
210
0.0
220
0.0
230
1.0
 70
     8
 71
     3
 72
    17
 73
    13
 74
     0
 42
0.00000001
 43
0.00000001
 40
0.0
 40
0.0
 40
0.0
 40
0.0
 40
0.1051942259402428
 40
0.2134561058493227
 40
0.3186455187857106
 40
0.4268531081279027
 40
0.5326345930703766
 40
0.6414593720713324
 40
0.7476145084137668
 40
0.8568833875052916
 40
0.9623948161110405
 40
1.0
 40
1.0
 40
1.0
 40
1.0
 10
138.5053997750282
 20
192.473426278454
 30
0.0
 10
137.623145427797
 20
192.4791819623094
 30
0.0
 10
135.8329086002017
 20
192.490861176176
 30
0.0
 10
133.2354262874017
 20
192.5822683589301
 30
0.0
 10
130.7650220010311
 20
192.7181251821042
 30
0.0
 10
128.5305704011424
 20
192.8866188724994
 30
0.0
 10
126.5537048088659
 20
193.0704589300399
 30
0.0
 10
124.9272977054856
 20
193.2464142643348
 30
0.0
 10
123.6622272366422
 20
193.3985807357648
 30
0.0
 10
122.8612712590754
 20
193.5017729706129
 30
0.0
 10
122.4889292544051
 20
193.5515965548325
 30
0.0
 10
122.5437791041773
 20
193.5442724053748
 30
0.0
 10
122.5581913981172
 20
193.5423479188851
 30
0.0
  0
SPLINE
  5
9A
330
1F
100
AcDbEntity
  8
0
  6
Continuous
 62
     7
370
    25
100
AcDbSpline
210
0.0
220
0.0
230
1.0
 70
     8
 71
     3
 72
    16
 73
    12
 74
     0
 42
0.00000001
 43
0.00000001
 40
0.0
 40
0.0
 40
0.0
 40
0.0
 40
0.1028946078536615
 40
0.2109631929398847
 40
0.315958000888235
 40
0.423953462226155
 40
0.5297393375816067
 40
0.638567504901698
 40
0.7447480963408076
 40
0.8540423971348163
 40
1.0
 40
1.0
 40
1.0
 40
1.0
 10
154.5010877720823
 20
193.548826288999
 30
0.0
 10
154.4623729137177
 20
193.5436072641602
 30
0.0
 10
154.3829964497299
 20
193.5329067797813
 30
0.0
 10
153.7071316070141
 20
193.4440816910368
 30
0.0
 10
152.6286359292255
 20
193.3104330158824
 30
0.0
 10
151.1563697141878
 20
193.1434053605474
 30
0.0
 10
149.3129673875384
 20
192.9600968200724
 30
0.0
 10
147.1737615972146
 20
192.7827261402634
 30
0.0
 10
144.763073912598
 20
192.6307450016948
 30
0.0
 10
141.8741719472691
 20
192.5036061051002
 30
0.0
 10
139.730938808534
 20
192.4844055176807
 30
0.0
 10
138.5053997750282
 20
192.473426278454
 30
0.0
  0
SPLINE
  5
9B
330
1F
100
AcDbEntity
  8
0
  6
Continuous
 62
     7
370
    25
100
AcDbSpline
210
0.0
220
0.0
230
1.0
 70
     8
 71
     3
 72
    12
 73
     8
 74
     0
 42
0.00000001
 43
0.00000001
 40
0.0
 40
0.0
 40
0.0
 40
0.0
 40
0.214587060354157
 40
0.42916519591147
 40
0.6439748791380498
 40
0.8589358385560322
 40
1.0
 40
1.0
 40
1.0
 40
1.0
 10
208.5053997750282
 20
193.3442029044014
 30
0.0
 10
207.7194503678344
 20
193.348841403995
 30
0.0
 10
206.1475842415259
 20
193.3581182102645
 30
0.0
 10
204.0474040639438
 20
193.4232963762033
 30
0.0
 10
202.4788217483942
 20
193.4938698920281
 30
0.0
 10
201.5883272540786
 20
193.5444871040851
 30
0.0
 10
201.5929810235596
 20
193.5442885160464
 30
0.0
 10
201.5948249386401
 20
193.5442098315562
 30
0.0
  0
SPLINE
  5
9C
330
1F
100
AcDbEntity
  8
0
  6
Continuous
 62
     7
370
    25
100
AcDbSpline
210
0.0
220
0.0
230
1.0
 70
     8
 71
     3
 72
    13
 73
     9
 74
     0
 42
0.00000001
 43
0.00000001
 40
0.0
 40
0.0
 40
0.0
 40
0.0
 40
0.0052241450113017
 40
0.2195571623470521
 40
0.4338894400053139
 40
0.6485406273149305
 40
0.8633343881157151
 40
1.0
 40
1.0
 40
1.0
 40
1.0
 10
215.4960221300827
 20
193.5488650456034
 30
0.0
 10
215.4991416758973
 20
193.5490429669334
 30
0.0
 10
215.6302480340467
 20
193.5565205354639
 30
0.0
 10
215.1604315155612
 20
193.5288696298705
 30
0.0
 10
214.059283901392
 20
193.4703703707984
 30
0.0
 10
212.2411045490627
 20
193.3971617923705
 30
0.0
 10
210.2903258436537
 20
193.3509649730316
 30
0.0
 10
209.0051447605305
 20
193.3460961536227
 30
0.0
 10
208.5053997750282
 20
193.3442029044014
 30
0.0
  0
LINE
  5
9D
330
1F
100
AcDbEntity
  8
0
  6
Continuous
 62
     7
370
    25
100
AcDbLine
 10
108.505399775
 20
64.0494
 30
0.0
 11
168.505399775
 21
64.0494
 31
0.0
  0
LINE
  5
9E
330
1F
100
AcDbEntity
  8
0
  6
Continuous
 62
     7
370
    25
100
AcDbLine
 10
108.505399775
 20
-45.4506
 30
0.0
 11
108.505399775
 21
64.0494
 31
0.0
  0
LINE
  5
9F
330
1F
100
AcDbEntity
  8
0
  6
Continuous
 62
     7
370
    25
100
AcDbLine
 10
168.505399775
 20
-25.6773475926
 30
0.0
 11
108.505399775
 21
-25.6773475926
 31
0.0
  0
LINE
  5
A0
330
1F
100
AcDbEntity
  8
0
  6
Continuous
 62
     7
370
    25
100
AcDbLine
 10
168.505399775
 20
64.0494
 30
0.0
 11
168.505399775
 21
-45.4506
 31
0.0
  0
LINE
  5
A1
330
1F
100
AcDbEntity
  8
0
  6
Continuous
 62
     7
370
    25
100
AcDbLine
 10
58.505399775
 20
65.0494
 30
0.0
 11
58.505399775
 21
-45.4506
 31
0.0
  0
LINE
  5
A2
330
1F
100
AcDbEntity
  8
0
  6
Continuous
 62
     7
370
    25
100
AcDbLine
 10
58.505399775
 20
193.5494
 30
0.0
 11
58.505399775
 21
83.0494
 31
0.0
  0
LINE
  5
A3
330
1F
100
AcDbEntity
  8
0
  6
Continuous
 62
     7
370
    25
100
AcDbLine
 10
218.505399775
 20
65.0494
 30
0.0
 11
218.505399775
 21
-45.4506
 31
0.0
  0
LINE
  5
A4
330
1F
100
AcDbEntity
  8
0
  6
Continuous
 62
     7
370
    25
100
AcDbLine
 10
218.505399775
 20
193.5494
 30
0.0
 11
218.505399775
 21
83.0494
 31
0.0
  0
LINE
  5
A5
330
1F
100
AcDbEntity
  8
0
  6
Continuous
 62
     7
370
    25
100
AcDbLine
 10
108.505399775
 20
-17.1724405065
 30
0.0
 11
168.505399775
 21
-17.1724405065
 31
0.0
  0
LINE
  5
A6
330
1F
100
AcDbEntity
  8
0
  6
Continuous
 62
     7
370
    25
100
AcDbLine
 10
58.505399775
 20
76.0494
 30
0.0
 11
58.505399775
 21
72.0494
 31
0.0
  0
LINE
  5
A7
330
1F
100
AcDbEntity
  8
0
  6
Continuous
 62
     7
370
    25
100
AcDbLine
 10
218.505399775
 20
76.0494
 30
0.0
 11
218.505399775
 21
72.0494
 31
0.0
  0
LINE
  5
A8
330
1F
100
AcDbEntity
  8
0
  6
Continuous
 62
     7
370
    25
100
AcDbLine
 10
138.505399775
 20
241.5494
 30
0.0
 11
154.505399775
 21
241.5494
 31
0.0
  0
LINE
  5
A9
330
1F
100
AcDbEntity
  8
0
  6
Continuous
 62
     7
370
    25
100
AcDbLine
 10
122.505399775
 20
241.5494
 30
0.0
 11
138.505399775
 21
241.5494
 31
0.0
  0
LINE
  5
AA
330
1F
100
AcDbEntity
  8
0
  6
Continuous
 62
     7
370
    25
100
AcDbLine
 10
68.505399775
 20
208.5494
 30
0.0
 11
75.505399775
 21
208.5494
 31
0.0
  0
LINE
  5
AB
330
1F
100
AcDbEntity
  8
0
  6
Continuous
 62
     7
370
    25
100
AcDbLine
 10
61.505399775
 20
208.5494
 30
0.0
 11
68.505399775
 21
208.5494
 31
0.0
  0
LINE
  5
AC
330
1F
100
AcDbEntity
  8
0
  6
Continuous
 62
     7
370
    25
100
AcDbLine
 10
208.505399775
 20
208.5494
 30
0.0
 11
201.505399775
 21
208.5494
 31
0.0
  0
LINE
  5
AD
330
1F
100
AcDbEntity
  8
0
  6
Continuous
 62
     7
370
    25
100
AcDbLine
 10
215.505399775
 20
208.5494
 30
0.0
 11
208.505399775
 21
208.5494
 31
0.0
  0
LINE
  5
AE
330
1F
100
AcDbEntity
  8
0
  6
Continuous
 62
     7
370
    25
100
AcDbLine
 10
451.807153594
 20
208.5494
 30
0.0
 11
451.807153594
 21
193.3491837796
 31
0.0
  0
LINE
  5
AF
330
1F
100
AcDbEntity
  8
0
  6
Continuous
 62
     7
370
    25
100
AcDbLine
 10
465.807153594
 20
193.3442029044
 30
0.0
 11
465.807153594
 21
208.5494
 31
0.0
  0
LINE
  5
B0
330
1F
100
AcDbEntity
  8
0
  6
Continuous
 62
     7
370
    25
100
AcDbLine
 10
442.807153594
 20
241.5494
 30
0.0
 11
442.807153594
 21
192.4803382627
 31
0.0
  0
LINE
  5
B1
330
1F
100
AcDbEntity
  8
0
  6
Continuous
 62
     7
370
    25
100
AcDbLine
 10
474.807153594
 20
192.4734262785
 30
0.0
 11
474.807153594
 21
241.5494
 31
0.0
  0
LINE
  5
B2
330
1F
100
AcDbEntity
  8
0
  6
Continuous
 62
     7
370
    25
100
AcDbLine
 10
577.9677595005
 20
83.0494
 30
0.0
 11
592.9677595005
 21
83.0494
 31
0.0
  0
LINE
  5
B3
330
1F
100
AcDbEntity
  8
0
  6
Continuous
 62
     7
370
    25
100
AcDbLine
 10
592.9677595005
 20
83.0494
 30
0.0
 11
592.9677595005
 21
76.0494
 31
0.0
  0
LINE
  5
B4
330
1F
100
AcDbEntity
  8
0
  6
Continuous
 62
     7
370
    25
100
AcDbLine
 10
592.9677595005
 20
76.0494
 30
0.0
 11
571.2893744114
 21
76.0494
 31
0.0
  0
ARC
  5
B5
330
1F
100
AcDbEntity
  8
0
  6
Continuous
 62
     7
370
    25
100
AcDbCircle
 10
458.807153594
 20
74.0494
 30
0.0
 40
112.4999999999999
100
AcDbArc
 50
1.0186452976
 51
358.9813547024
  0
LINE
  5
B6
330
1F
100
AcDbEntity
  8
0
  6
Continuous
 62
     7
370
    25
100
AcDbLine
 10
571.2893744114
 20
72.0494
 30
0.0
 11
592.9677595005
 21
72.0494
 31
0.0
  0
LINE
  5
B7
330
1F
100
AcDbEntity
  8
0
  6
Continuous
 62
     7
370
    25
100
AcDbLine
 10
592.9677595005
 20
72.0494
 30
0.0
 11
592.9677595005
 21
65.0494
 31
0.0
  0
LINE
  5
B8
330
1F
100
AcDbEntity
  8
0
  6
Continuous
 62
     7
370
    25
100
AcDbLine
 10
592.9677595005
 20
65.0494
 30
0.0
 11
577.9677595005
 21
65.0494
 31
0.0
  0
ARC
  5
B9
330
1F
100
AcDbEntity
  8
0
  6
Continuous
 62
     7
370
    25
100
AcDbCircle
 10
458.807153594
 20
74.0494
 30
0.0
 40
119.5
100
AcDbArc
 50
4.3192531481
 51
355.6807468519
  0
LINE
  5
BA
330
1F
100
AcDbEntity
  8
0
  6
Continuous
 62
     7
370
    25
100
AcDbLine
 10
451.807153594
 20
208.5494
 30
0.0
 11
465.807153594
 21
208.5494
 31
0.0
  0
LINE
  5
BB
330
1F
100
AcDbEntity
  8
0
  6
Continuous
 62
     7
370
    25
100
AcDbLine
 10
442.807153594
 20
241.5494
 30
0.0
 11
474.807153594
 21
241.5494
 31
0.0
  0
LINE
  5
BC
330
1F
100
AcDbEntity
  8
0
  6
Continuous
 62
     7
370
    25
100
AcDbLine
 10
58.505399775
 20
320.356367026
 30
0.0
 11
218.505399775
 21
320.356367026
 31
0.0
  0
LINE
  5
BD
330
1F
100
AcDbEntity
  8
0
  6
Continuous
 62
     7
370
    25
100
AcDbLine
 10
218.505399775
 20
559.0169729325
 30
0.0
 11
58.505399775
 21
559.0169729325
 31
0.0
  0
LINE
  5
BE
330
1F
100
AcDbEntity
  8
0
  6
Continuous
 62
     7
370
    25
100
AcDbLine
 10
218.505399775
 20
559.0169729325
 30
0.0
 11
218.505399775
 21
320.356367026
 31
0.0
  0
LINE
  5
BF
330
1F
100
AcDbEntity
  8
0
  6
Continuous
 62
     7
370
    25
100
AcDbLine
 10
58.505399775
 20
559.0169729325
 30
0.0
 11
58.505399775
 21
320.356367026
 31
0.0
  0
LINE
  5
C0
330
1F
100
AcDbEntity
  8
0
  6
Continuous
 62
     7
370
    25
100
AcDbLine
 10
108.505399775
 20
558.9372219104
 30
0.0
 11
168.505399775
 21
558.9372219104
 31
0.0
  0
LINE
  5
C1
330
1F
100
AcDbEntity
  8
0
  6
Continuous
 62
     7
370
    25
100
AcDbLine
 10
108.505399775
 20
374.0169729325
 30
0.0
 11
108.505399775
 21
558.9372219104
 31
0.0
  0
LINE
  5
C2
330
1F
100
AcDbEntity
  8
0
  6
Continuous
 62
     7
370
    25
100
AcDbLine
 10
168.505399775
 20
374.0169729325
 30
0.0
 11
108.505399775
 21
374.0169729325
 31
0.0
  0
LINE
  5
C3
330
1F
100
AcDbEntity
  8
0
  6
Continuous
 62
     7
370
    25
100
AcDbLine
 10
168.505399775
 20
558.9372219104
 30
0.0
 11
168.505399775
 21
374.0169729325
 31
0.0
  0
SPLINE
  5
C4
330
1F
100
AcDbEntity
  8
0
  6
Continuous
 62
     7
370
    25
100
AcDbSpline
210
0.0
220
0.0
230
1.0
 70
    11
 71
     3
 72
    99
 73
    95
 74
     0
 42
0.00000001
 43
0.00000001
 40
0.0
 40
0.0
 40
0.0
 40
0.0
 40
0.0312499999999999
 40
0.0312499999999999
 40
0.0468749999999998
 40
0.0468749999999998
 40
0.0624999999999997
 40
0.0624999999999997
 40
0.0937499999999996
 40
0.0937499999999996
 40
0.1093749999999996
 40
0.1093749999999996
 40
0.1249999999999995
 40
0.1249999999999995
 40
0.1562499999999994
 40
0.1562499999999994
 40
0.1718749999999994
 40
0.1718749999999994
 40
0.1874999999999993
 40
0.2031249999999992
 40
0.2031249999999992
 40
0.2187499999999992
 40
0.2187499999999992
 40
0.2499999999999991
 40
0.2499999999999991
 40
0.265624999999999
 40
0.265624999999999
 40
0.2812499999999989
 40
0.2812499999999989
 40
0.3124999999999988
 40
0.3124999999999988
 40
0.3281249999999988
 40
0.3281249999999988
 40
0.3437499999999988
 40
0.3437499999999988
 40
0.3749999999999988
 40
0.3749999999999988
 40
0.4062499999999988
 40
0.4062499999999988
 40
0.4218749999999988
 40
0.4218749999999988
 40
0.4374999999999988
 40
0.4374999999999988
 40
0.4687499999999989
 40
0.4687499999999989
 40
0.4843749999999989
 40
0.4843749999999989
 40
0.499999999999999
 40
0.499999999999999
 40
0.5312499999999991
 40
0.5312499999999991
 40
0.5468749999999991
 40
0.5468749999999991
 40
0.5624999999999991
 40
0.5781249999999992
 40
0.5781249999999992
 40
0.5937499999999992
 40
0.5937499999999992
 40
0.6249999999999993
 40
0.6249999999999993
 40
0.6406249999999993
 40
0.6406249999999993
 40
0.6562499999999993
 40
0.6562499999999993
 40
0.6874999999999993
 40
0.6874999999999993
 40
0.7031249999999993
 40
0.7031249999999993
 40
0.7187499999999994
 40
0.7187499999999994
 40
0.7499999999999994
 40
0.7499999999999994
 40
0.7812499999999996
 40
0.7812499999999996
 40
0.7968749999999997
 40
0.7968749999999997
 40
0.8124999999999997
 40
0.8124999999999997
 40
0.8437499999999997
 40
0.8437499999999997
 40
0.8593749999999997
 40
0.8593749999999997
 40
0.8749999999999997
 40
0.8749999999999997
 40
0.9062499999999998
 40
0.9062499999999998
 40
0.9218749999999998
 40
0.9218749999999998
 40
0.9374999999999999
 40
0.9531249999999999
 40
0.9531249999999999
 40
0.9687499999999999
 40
0.9687499999999999
 40
1.0
 40
1.0
 40
1.0
 40
1.0
 10
138.5053997750282
 20
426.8563670259942
 30
0.0
 10
139.3650114226991
 20
426.8563670259942
 30
0.0
 10
140.2101136290836
 20
426.9407877072221
 30
0.0
 10
141.4569263772366
 20
427.188768582233
 30
0.0
 10
141.8690315641128
 20
427.2918048560049
 30
0.0
 10
142.6860927680906
 20
427.5395473295861
 30
0.0
 10
143.0920040230501
 20
427.6849034252402
 30
0.0
 10
144.2724730965754
 20
428.1744697420038
 30
0.0
 10
145.0188680254338
 20
428.5738115866579
 30
0.0
 10
146.0783037999794
 20
429.281327730485
 30
0.0
 10
146.4226830170714
 20
429.536492967343
 30
0.0
 10
147.0843096740232
 20
430.0795843514082
 30
0.0
 10
147.3992252027129
 20
430.3653542211345
 30
0.0
 10
148.2977681342738
 20
431.2640832133278
 30
0.0
 10
148.8356358251011
 20
431.9180631108507
 30
0.0
 10
149.5484155526973
 20
432.9836372910925
 30
0.0
 10
149.7695007513235
 20
433.3524600424038
 30
0.0
 10
150.1704081018179
 20
434.1023804938556
 30
0.0
 10
150.5327437642802
 20
434.8684226967714
 30
0.0
 10
150.8189887473483
 20
435.666314871345
 30
0.0
 10
151.0666032624942
 20
436.4803964419405
 30
0.0
 10
151.1715107447899
 20
436.8978750305426
 30
0.0
 10
151.4221783742563
 20
438.1566615925747
 30
0.0
 10
151.5049296211576
 20
439.0006075588732
 30
0.0
 10
151.5056318842043
 20
440.2734883860802
 30
0.0
 10
151.4851474668011
 20
440.6989505316716
 30
0.0
 10
151.4014324336466
 20
441.5522852946532
 30
0.0
 10
151.3383475422127
 20
441.9767882895114
 30
0.0
 10
151.089414148175
 20
443.2276458896715
 30
0.0
 10
150.8438405470523
 20
444.0383477308458
 30
0.0
 10
150.3552526423468
 20
445.2194359093879
 30
0.0
 10
150.1710605929283
 20
445.6091331756282
 30
0.0
 10
149.7688424510511
 20
446.3615049779988
 30
0.0
 10
149.5505337770561
 20
446.7254418813948
 30
0.0
 10
148.8451641135627
 20
447.7813888802837
 30
0.0
 10
148.3078609899009
 20
448.4381907011567
 30
0.0
 10
147.0951375416324
 20
449.6518939930153
 30
0.0
 10
146.4393058655803
 20
450.1893074246987
 30
0.0
 10
145.3841001235274
 20
450.8955070423078
 30
0.0
 10
145.020366439038
 20
451.1141284980318
 30
0.0
 10
144.2682969796405
 20
451.5170273762284
 30
0.0
 10
143.8787760076468
 20
451.701546502471
 30
0.0
 10
142.6983502825876
 20
452.1910726126721
 30
0.0
 10
141.8880673264604
 20
452.4373077543393
 30
0.0
 10
140.6378120739909
 20
452.687323542585
 30
0.0
 10
140.2136712649167
 20
452.7507737191039
 30
0.0
 10
139.3601415344316
 20
452.8353243021089
 30
0.0
 10
138.93459854679
 20
452.8562081371589
 30
0.0
 10
137.661521845938
 20
452.8566821008544
 30
0.0
 10
136.8175071368329
 20
452.7746848328734
 30
0.0
 10
135.5587052779501
 20
452.5252253277628
 30
0.0
 10
135.1410204937152
 20
452.4206835316038
 30
0.0
 10
134.3265176534208
 20
452.1737546804951
 30
0.0
 10
133.5281640601036
 20
451.8881586235725
 30
0.0
 10
132.7615840665095
 20
451.5263914023498
 30
0.0
 10
132.0110880252457
 20
451.1260077804634
 30
0.0
 10
131.6419395067993
 20
450.905141842721
 30
0.0
 10
130.5760523067473
 20
450.1934602317478
 30
0.0
 10
129.921612715541
 20
449.6561985110927
 30
0.0
 10
129.0219410448393
 20
448.7582508079553
 30
0.0
 10
128.7358142241498
 20
448.4434813122897
 30
0.0
 10
128.1919413087529
 20
447.7820157733363
 30
0.0
 10
127.9367337467589
 20
447.4381553622406
 30
0.0
 10
127.2285430701042
 20
446.3796611959323
 30
0.0
 10
126.828599913518
 20
445.6337514527489
 30
0.0
 10
126.3380009651287
 20
444.453742653015
 30
0.0
 10
126.1922792267121
 20
444.0479394463036
 30
0.0
 10
125.9438298187562
 20
443.231152534104
 30
0.0
 10
125.8404367438106
 20
442.8191751589156
 30
0.0
 10
125.5913680752265
 20
441.5727200534837
 30
0.0
 10
125.5061997344848
 20
440.7278220900208
 30
0.0
 10
125.5046109226071
 20
439.0089445590717
 30
0.0
 10
125.5882838972387
 20
438.1633236997814
 30
0.0
 10
125.8351471897238
 20
436.9162532525567
 30
0.0
 10
125.9378116779386
 20
436.504062047381
 30
0.0
 10
126.1848009884355
 20
435.6868269089605
 30
0.0
 10
126.3297955433355
 20
435.2807617248684
 30
0.0
 10
126.8183496041367
 20
434.0997302112317
 30
0.0
 10
127.2170555566588
 20
433.3529336953564
 30
0.0
 10
127.9236478041644
 20
432.292845009319
 30
0.0
 10
128.178501512318
 20
431.9482472838361
 30
0.0
 10
128.7210224171237
 20
431.2861193456291
 30
0.0
 10
129.0065195745195
 20
430.9709444590974
 30
0.0
 10
129.9044645201833
 20
430.0715957069647
 30
0.0
 10
130.5579667744338
 20
429.5331541886014
 30
0.0
 10
131.6228865436246
 20
428.8194464742363
 30
0.0
 10
131.9915190150239
 20
428.5980307425721
 30
0.0
 10
132.7410874166923
 20
428.1964577330803
 30
0.0
 10
133.5068075154031
 20
427.8334447326972
 30
0.0
 10
134.3044367989411
 20
427.5464964006549
 30
0.0
 10
135.1182856695523
 20
427.2981640185758
 30
0.0
 10
135.5352717833755
 20
427.1929565377562
 30
0.0
 10
136.7958452083049
 20
426.9407979287748
 30
0.0
 10
137.6457881273573
 20
426.8563670259942
 30
0.0
 10
138.5053997750282
 20
426.8563670259942
 30
0.0
  0
LINE
  5
C5
330
1F
100
AcDbEntity
  8
0
  6
Continuous
 62
     7
370
    25
100
AcDbLine
 10
168.505399775
 20
551.9110411811
 30
0.0
 11
108.505399775
 21
551.9110411811
 31
0.0
  0
LINE
  5
C6
330
1F
100
AcDbEntity
  8
0
  6
Continuous
 62
     7
370
    25
100
AcDbLine
 10
218.505399775
 20
574.0169729325
 30
0.0
 11
58.505399775
 21
574.0169729325
 31
0.0
  0
LINE
  5
C7
330
1F
100
AcDbEntity
  8
0
  6
Continuous
 62
     7
370
    25
100
AcDbLine
 10
58.505399775
 20
574.0169729325
 30
0.0
 11
58.505399775
 21
559.0169729325
 31
0.0
  0
LINE
  5
C8
330
1F
100
AcDbEntity
  8
0
  6
Continuous
 62
     7
370
    25
100
AcDbLine
 10
218.505399775
 20
574.0169729325
 30
0.0
 11
218.505399775
 21
559.0169729325
 31
0.0
  0
INSERT
  5
D4
330
1F
100
AcDbEntity
  8
FORMAT
100
AcDbBlockReference
  2
SW_CENTERMARKSYMBOL_0
 10
138.505399775
 20
439.856367026
 30
0.0
  0
LINE
  5
D5
330
1F
100
AcDbEntity
  8
0
  6
Continuous
 62
     7
370
    25
100
AcDbLine
 10
-165.8167024882
 20
208.5494
 30
0.0
 11
-165.8167024882
 21
193.3442029044
 31
0.0
  0
LINE
  5
D6
330
1F
100
AcDbEntity
  8
0
  6
Continuous
 62
     7
370
    25
100
AcDbLine
 10
-151.8167024882
 20
193.3491837796
 30
0.0
 11
-151.8167024882
 21
208.5494
 31
0.0
  0
LINE
  5
D7
330
1F
100
AcDbEntity
  8
0
  6
Continuous
 62
     7
370
    25
100
AcDbLine
 10
-174.8167024882
 20
241.5494
 30
0.0
 11
-174.8167024882
 21
192.4734262785
 31
0.0
  0
LINE
  5
D8
330
1F
100
AcDbEntity
  8
0
  6
Continuous
 62
     7
370
    25
100
AcDbLine
 10
-142.8167024882
 20
192.4803382627
 30
0.0
 11
-142.8167024882
 21
241.5494
 31
0.0
  0
LINE
  5
D9
330
1F
100
AcDbEntity
  8
0
  6
Continuous
 62
     7
370
    25
100
AcDbLine
 10
-292.9773083947
 20
65.0494
 30
0.0
 11
-277.9773083947
 21
65.0494
 31
0.0
  0
LINE
  5
DA
330
1F
100
AcDbEntity
  8
0
  6
Continuous
 62
     7
370
    25
100
AcDbLine
 10
-292.9773083947
 20
72.0494
 30
0.0
 11
-292.9773083947
 21
65.0494
 31
0.0
  0
LINE
  5
DB
330
1F
100
AcDbEntity
  8
0
  6
Continuous
 62
     7
370
    25
100
AcDbLine
 10
-271.2989233055
 20
72.0494
 30
0.0
 11
-292.9773083947
 21
72.0494
 31
0.0
  0
ARC
  5
DC
330
1F
100
AcDbEntity
  8
0
  6
Continuous
 62
     7
370
    25
100
AcDbCircle
 10
-158.8167024882
 20
74.0494
 30
0.0
 40
112.5
100
AcDbArc
 50
181.0186452976
 51
178.9813547024
  0
LINE
  5
DD
330
1F
100
AcDbEntity
  8
0
  6
Continuous
 62
     7
370
    25
100
AcDbLine
 10
-292.9773083947
 20
76.0494
 30
0.0
 11
-271.2989233055
 21
76.0494
 31
0.0
  0
LINE
  5
DE
330
1F
100
AcDbEntity
  8
0
  6
Continuous
 62
     7
370
    25
100
AcDbLine
 10
-292.9773083947
 20
83.0494
 30
0.0
 11
-292.9773083947
 21
76.0494
 31
0.0
  0
LINE
  5
DF
330
1F
100
AcDbEntity
  8
0
  6
Continuous
 62
     7
370
    25
100
AcDbLine
 10
-277.9773083947
 20
83.0494
 30
0.0
 11
-292.9773083947
 21
83.0494
 31
0.0
  0
ARC
  5
E0
330
1F
100
AcDbEntity
  8
0
  6
Continuous
 62
     7
370
    25
100
AcDbCircle
 10
-158.8167024882
 20
74.0494
 30
0.0
 40
119.5
100
AcDbArc
 50
184.3192531481
 51
175.6807468519
  0
LINE
  5
E1
330
1F
100
AcDbEntity
  8
0
  6
Continuous
 62
     7
370
    25
100
AcDbLine
 10
-151.8167024882
 20
208.5494
 30
0.0
 11
-165.8167024882
 21
208.5494
 31
0.0
  0
LINE
  5
E2
330
1F
100
AcDbEntity
  8
0
  6
Continuous
 62
     7
370
    25
100
AcDbLine
 10
-174.8167024882
 20
241.5494
 30
0.0
 11
-142.8167024882
 21
241.5494
 31
0.0
  0
LINE
  5
E3
330
1F
100
AcDbEntity
  8
0
  6
Continuous
 62
     7
370
    25
100
AcDbLine
 10
218.505399775
 20
-124.0585516615
 30
0.0
 11
58.505399775
 21
-124.0585516615
 31
0.0
  0
CIRCLE
  5
E4
330
1F
100
AcDbEntity
  8
0
  6
Continuous
 62
     7
370
    25
100
AcDbCircle
 10
138.505399775
 20
-243.5585516615
 30
0.0
 40
16.0
  0
CIRCLE
  5
E5
330
1F
100
AcDbEntity
  8
0
  6
Continuous
 62
     7
370
    25
100
AcDbCircle
 10
138.505399775
 20
-243.5585516615
 30
0.0
 40
13.0
  0
CIRCLE
  5
E6
330
1F
100
AcDbEntity
  8
0
  6
Continuous
 62
     7
370
    25
100
AcDbCircle
 10
68.505399775
 20
-243.5585516615
 30
0.0
 40
4.599999999999994
  0
CIRCLE
  5
E7
330
1F
100
AcDbEntity
  8
0
  6
Continuous
 62
     7
370
    25
100
AcDbCircle
 10
68.505399775
 20
-243.5585516615
 30
0.0
 40
6.999999999999972
  0
CIRCLE
  5
E8
330
1F
100
AcDbEntity
  8
0
  6
Continuous
 62
     7
370
    25
100
AcDbCircle
 10
208.505399775
 20
-243.5585516615
 30
0.0
 40
4.599999999999994
  0
CIRCLE
  5
E9
330
1F
100
AcDbEntity
  8
0
  6
Continuous
 62
     7
370
    25
100
AcDbCircle
 10
208.505399775
 20
-243.5585516615
 30
0.0
 40
6.999999999999972
  0
CIRCLE
  5
EA
330
1F
100
AcDbEntity
  8
0
  6
Continuous
 62
     7
370
    25
100
AcDbCircle
 10
68.505399775
 20
-243.5585516615
 30
0.0
 40
1.5
  0
CIRCLE
  5
EB
330
1F
100
AcDbEntity
  8
0
  6
Continuous
 62
     7
370
    25
100
AcDbCircle
 10
68.505399775
 20
-243.5585516615
 30
0.0
 40
2.0
  0
CIRCLE
  5
EC
330
1F
100
AcDbEntity
  8
0
  6
Continuous
 62
     7
370
    25
100
AcDbCircle
 10
208.505399775
 20
-243.5585516615
 30
0.0
 40
1.5
  0
CIRCLE
  5
ED
330
1F
100
AcDbEntity
  8
0
  6
Continuous
 62
     7
370
    25
100
AcDbCircle
 10
208.505399775
 20
-243.5585516615
 30
0.0
 40
2.0
  0
LINE
  5
EE
330
1F
100
AcDbEntity
  8
0
  6
Continuous
 62
     7
370
    25
100
AcDbLine
 10
218.505399775
 20
-124.0585516615
 30
0.0
 11
218.505399775
 21
-362.719157568
 31
0.0
  0
LINE
  5
EF
330
1F
100
AcDbEntity
  8
0
  6
Continuous
 62
     7
370
    25
100
AcDbLine
 10
218.505399775
 20
-362.719157568
 30
0.0
 11
58.505399775
 21
-362.719157568
 31
0.0
  0
LINE
  5
F0
330
1F
100
AcDbEntity
  8
0
  6
Continuous
 62
     7
370
    25
100
AcDbLine
 10
58.505399775
 20
-124.0585516615
 30
0.0
 11
58.505399775
 21
-362.719157568
 31
0.0
  0
LINE
  5
F1
330
1F
100
AcDbEntity
  8
0
  6
Continuous
 62
     7
370
    25
100
AcDbLine
 10
218.505399775
 20
-377.719157568
 30
0.0
 11
58.505399775
 21
-377.719157568
 31
0.0
  0
LINE
  5
F2
330
1F
100
AcDbEntity
  8
0
  6
Continuous
 62
     7
370
    25
100
AcDbLine
 10
58.505399775
 20
-362.719157568
 30
0.0
 11
58.505399775
 21
-377.719157568
 31
0.0
  0
LINE
  5
F3
330
1F
100
AcDbEntity
  8
0
  6
Continuous
 62
     7
370
    25
100
AcDbLine
 10
218.505399775
 20
-362.719157568
 30
0.0
 11
218.505399775
 21
-377.719157568
 31
0.0
  0
INSERT
  5
FF
330
1F
100
AcDbEntity
  8
FORMAT
100
AcDbBlockReference
  2
SW_CENTERMARKSYMBOL_1
 10
138.505399775
 20
-243.5585516615
 30
0.0
  0
INSERT
  5
10B
330
1F
100
AcDbEntity
  8
FORMAT
100
AcDbBlockReference
  2
SW_CENTERMARKSYMBOL_2
 10
68.505399775
 20
-243.5585516615
 30
0.0
  0
INSERT
  5
117
330
1F
100
AcDbEntity
  8
FORMAT
100
AcDbBlockReference
  2
SW_CENTERMARKSYMBOL_3
 10
208.505399775
 20
-243.5585516615
 30
0.0
  0
LINE
  5
118
330
1F
100
AcDbEntity
  8
0
  6
Continuous
 62
     7
370
    25
100
AcDbLine
 10
471.6637395325
 20
-376.6546415202
 30
0.0
 11
584.8008245224
 21
-311.3419925743
 31
0.0
  0
LINE
  5
119
330
1F
100
AcDbEntity
  8
0
  6
Continuous
 62
     7
370
    25
100
AcDbLine
 10
465.3105359724
 20
-104.3563144654
 30
0.0
 11
352.1734509825
 21
-169.6689634112
 31
0.0
  0
LINE
  5
11A
330
1F
100
AcDbEntity
  8
0
  6
Continuous
 62
     7
370
    25
100
AcDbLine
 10
510.9846124355
 20
-102.1064548803
 30
0.0
 11
510.9846124355
 21
-103.5118782384
 31
0.0
  0
LINE
  5
11B
330
1F
100
AcDbEntity
  8
0
  6
Continuous
 62
     7
370
    25
100
AcDbLine
 10
524.9846124355
 20
-110.2315344359
 30
0.0
 11
524.9846124355
 21
-102.1064548803
 31
0.0
  0
LINE
  5
11C
330
1F
100
AcDbEntity
  8
0
  6
Continuous
 62
     7
370
    25
100
AcDbLine
 10
452.4871377524
 20
-103.7348920019
 30
0.0
 11
452.4871377524
 21
-111.7591046849
 31
0.0
  0
LINE
  5
11D
330
1F
100
AcDbEntity
  8
0
  6
Continuous
 62
     7
370
    25
100
AcDbLine
 10
430.1898060428
 20
-160.4331173523
 30
0.0
 11
440.7964077606
 21
-166.5561781909
 31
0.0
  0
LINE
  5
11E
330
1F
100
AcDbEntity
  8
0
  6
Continuous
 62
     7
370
    25
100
AcDbLine
 10
430.1898060428
 20
-154.7173316691
 30
0.0
 11
430.1898060428
 21
-160.4331173523
 31
0.0
  0
LINE
  5
11F
330
1F
100
AcDbEntity
  8
0
  6
Continuous
 62
     7
370
    25
100
AcDbLine
 10
445.5187391445
 20
-163.5665363881
 30
0.0
 11
430.1898060428
 21
-154.7173316691
 31
0.0
  0
LWPOLYLINE
  5
120
330
1F
100
AcDbEntity
  8
0
  6
Continuous
 62
     7
370
    25
100
AcDbPolyline
 90
      125
 70
   128
 43
0.0
 10
445.5187391445
 20
-160.3003731405
 10
445.6908960518
 20
-155.7761932759
 10
446.0644823791
 20
-151.3841756328
 10
446.6385499569
 20
-147.1354672402
 10
447.41164179
 20
-143.0408514057
 10
448.3817957558
 20
-139.1107203467
 10
449.546549584
 20
-135.3550488149
 10
450.902947106
 20
-131.7833687803
 10
452.4475457575
 20
-128.4047452387
 10
454.1764253161
 20
-125.2277532046
 10
456.0851978507
 20
-122.2604559479
 10
458.169018858
 20
-119.5103845286
 10
460.4225995585
 20
-116.9845186835
 10
462.840220319
 20
-114.6892691108
 10
465.4157451693
 20
-112.6304612003
 10
468.1426373754
 20
-110.8133202477
 10
471.0139760301
 20
-109.2424581935
 10
474.0224736181
 20
-107.9218619172
 10
477.1604945119
 20
-106.8548831187
 10
480.4200743513
 20
-106.0442298116
 10
483.7929402571
 20
-105.4919594505
 10
487.2705318276
 20
-105.1994737085
 10
490.8440228656
 20
-105.1675149204
 10
494.5043437786
 20
-105.3961641982
 10
498.2422045987
 20
-105.8848412254
 10
502.0481185599
 20
-106.63230573
 10
505.9124261757
 20
-107.636660632
 10
509.8253197558
 20
-108.8953568583
 10
513.7768682974
 20
-110.4051998127
 10
517.7570426908
 20
-112.1623574834
 10
521.7557411732
 20
-114.1623701687
 10
525.7628149675
 20
-116.4001617962
 10
529.7680940396
 20
-118.8700528057
 10
533.7614129106
 20
-121.5657745642
 10
537.7326364569
 20
-124.4804852755
 10
541.6716856331
 20
-127.6067873452
 10
545.5685630531
 20
-130.9367461556
 10
549.4133783636
 20
-134.4619102043
 10
553.1963733459
 20
-138.1733325539
 10
556.9079466826
 20
-142.0615935399
 10
560.5386783259
 20
-146.1168246775
 10
564.0793534057
 20
-150.3287337085
 10
567.5209856174
 20
-154.6866307229
 10
570.8548400292
 20
-159.1794552905
 10
574.0724552514
 20
-163.795804532
 10
577.1656649119
 20
-168.52396206
 10
580.1266183822
 20
-173.3519277157
 10
582.9478007029
 20
-178.267448025
 10
585.6220516564
 20
-183.2580472983
 10
588.1425839399
 20
-188.3110592943
 10
590.5030003919
 20
-193.4136593668
 10
592.6973102277
 20
-198.5528970141
 10
594.7199442449
 20
-203.7157287475
 10
596.5657689576
 20
-208.8890511962
 10
598.2300996255
 20
-214.0597343636
 10
599.708712144
 20
-219.2146549519
 10
600.9978537645
 20
-224.3407296687
 10
602.0942526199
 20
-229.4249484332
 10
602.9951260276
 20
-234.4544073959
 10
603.6981875529
 20
-239.4163416887
 10
604.2016528114
 20
-244.2981578223
 10
604.5042439983
 20
-249.0874656493
 10
604.6051931308
 20
-253.7721098099
 10
604.5042439983
 20
-258.3402005829
 10
604.2016528114
 20
-262.780144062
 10
603.6981875529
 20
-267.0806715812
 10
602.9951260276
 20
-271.2308683152
 10
602.0942526199
 20
-275.220200981
 10
600.9978537645
 20
-279.0385445721
 10
599.708712144
 20
-282.6762080555
 10
598.2300996255
 20
-286.1239589681
 10
596.5657689576
 20
-289.3730468487
 10
594.7199442449
 20
-292.4152254467
 10
592.6973102277
 20
-295.2427736518
 10
590.5030003919
 20
-297.8485150896
 10
588.1425839399
 20
-300.2258363359
 10
585.6220516564
 20
-302.3687037014
 10
582.9478007029
 20
-304.2716785458
 10
580.1266183822
 20
-305.9299310805
 10
577.1656649119
 20
-307.3392526273
 10
574.0724552514
 20
-308.4960662995
 10
570.8548400292
 20
-309.397436081
 10
567.5209856174
 20
-310.041074277
 10
564.0793534057
 20
-310.4253473207
 10
560.5386783259
 20
-310.5492799196
 10
556.9079466826
 20
-310.4125575301
 10
553.1963733459
 20
-310.0155271565
 10
549.4133783636
 20
-309.3591964698
 10
545.5685630531
 20
-308.4452312505
 10
541.6716856331
 20
-307.2759511608
 10
537.7326364569
 20
-305.854323857
 10
533.7614129106
 20
-304.1839574579
 10
529.7680940396
 20
-302.269091387
 10
525.7628149675
 20
-300.114585613
 10
521.7557411732
 20
-297.7259083148
 10
517.7570426908
 20
-295.1091220036
 10
513.7768682974
 20
-292.2708681357
 10
509.8253197558
 20
-289.2183502565
 10
505.9124261757
 20
-285.9593157179
 10
502.0481185599
 20
-282.5020360152
 10
498.2422045987
 20
-278.8552857938
 10
494.5043437786
 20
-275.0283205792
 10
490.8440228656
 20
-271.0308532862
 10
487.2705318276
 20
-266.8730295672
 10
483.7929402571
 20
-262.5654020625
 10
480.4200743513
 20
-258.1189036175
 10
477.1604945119
 20
-253.5448195348
 10
474.0224736181
 20
-248.8547589317
 10
471.0139760301
 20
-244.0606252766
 10
468.1426373754
 20
-239.1745861772
 10
465.4157451693
 20
-234.2090424991
 10
462.840220319
 20
-229.1765968921
 10
460.4225995585
 20
-224.0900218044
 10
458.169018858
 20
-218.9622270661
 10
456.0851978507
 20
-213.8062271234
 10
454.1764253161
 20
-208.635108008
 10
452.4475457575
 20
-203.4619941242
 10
450.902947106
 20
-198.3000149393
 10
449.546549584
 20
-193.1622716604
 10
448.3817957558
 20
-188.0618039833
 10
447.41164179
 20
-183.0115569977
 10
446.6385499569
 20
-178.024348332
 10
446.0644823791
 20
-173.1128356224
 10
445.6908960518
 20
-168.2894843869
 10
445.5187391445
 20
-163.5665363881
  0
LINE
  5
121
330
1F
100
AcDbEntity
  8
0
  6
Continuous
 62
     7
370
    25
100
AcDbLine
 10
430.1898060428
 20
-151.4511684215
 30
0.0
 11
445.5187391445
 21
-160.3003731405
 31
0.0
  0
LINE
  5
122
330
1F
100
AcDbEntity
  8
0
  6
Continuous
 62
     7
370
    25
100
AcDbLine
 10
430.1898060428
 20
-145.7353827383
 30
0.0
 11
430.1898060428
 21
-151.4511684215
 31
0.0
  0
LINE
  5
123
330
1F
100
AcDbEntity
  8
0
  6
Continuous
 62
     7
370
    25
100
AcDbLine
 10
440.7964077606
 20
-151.858443577
 30
0.0
 11
430.1898060428
 21
-145.7353827383
 31
0.0
  0
LWPOLYLINE
  5
124
330
1F
100
AcDbEntity
  8
0
  6
Continuous
 62
     7
370
    25
100
AcDbPolyline
 90
      126
 70
   128
 43
0.0
 10
440.7964077606
 20
-166.5561781909
 10
441.2098721151
 20
-171.5575567436
 10
441.8250974995
 20
-176.6462650043
 10
442.640603476
 20
-181.8100578407
 10
443.6544276647
 20
-187.0365094417
 10
444.8641304658
 20
-192.3130432186
 10
446.2668009304
 20
-197.626962068
 10
447.8590637644
 20
-202.9654789255
 10
449.6370874515
 20
-208.315747536
 10
451.5965934727
 20
-213.6648933653
 10
453.7328666017
 20
-219.0000445813
 10
456.0407662515
 20
-224.3083630276
 10
458.5147388445
 20
-229.5770751162
 10
461.148831176
 20
-234.7935025655
 10
463.9367047396
 20
-239.945092908
 10
466.8716509801
 20
-245.0194496961
 10
469.9466074362
 20
-250.0043623318
 10
473.1541747352
 20
-254.8878354497
 10
476.4866343983
 20
-259.6581177817
 10
479.9359674143
 20
-264.3037304347
 10
483.4938735353
 20
-268.8134945124
 10
487.1517912503
 20
-273.1765580155
 10
490.9009183872
 20
-277.3824219554
 10
494.7322332933
 20
-281.4209656181
 10
498.6365165448
 20
-285.2824709183
 10
502.6043731317
 20
-288.9576457839
 10
506.6262550651
 20
-292.4376465161
 10
510.6924843535
 20
-295.7140990705
 10
514.7932762903
 20
-298.7791192074
 10
518.9187630001
 20
-301.6253314643
 10
523.0590171833
 20
-304.2458869034
 10
527.204076005
 20
-306.6344795927
 10
531.3439650686
 20
-308.7853617802
 10
535.4687224179
 20
-310.6933577246
 10
539.5684225083
 20
-312.3538761502
 10
543.6332000917
 20
-313.7629212947
 10
547.6532739551
 20
-314.9171025248
 10
551.6189704573
 20
-315.8136424948
 10
555.5207468077
 20
-316.4503838299
 10
559.3492140286
 20
-316.8257943178
 10
563.0951595487
 20
-316.9389705953
 10
566.7495693713
 20
-316.7896403226
 10
570.3036497655
 20
-316.3781628381
 10
573.7488484262
 20
-315.7055282942
 10
577.0768750543
 20
-314.7733552743
 10
580.2797213058
 20
-313.5838868982
 10
583.3496800624
 20
-312.1399854242
 10
586.2793639775
 20
-310.4451253618
 10
589.0617232528
 20
-308.5033851106
 10
591.6900626022
 20
-306.3194371463
 10
594.1580573629
 20
-303.8985367776
 10
596.459768715
 20
-301.2465094996
 10
598.5896579719
 20
-298.3697369761
 10
600.5425999082
 20
-295.2751416829
 10
602.3138950933
 20
-291.9701702505
 10
603.8992811991
 20
-288.4627755442
 10
605.2949432568
 20
-284.7613975278
 10
606.4975228372
 20
-280.8749429534
 10
607.504126132
 20
-276.8127639295
 10
608.3123309173
 20
-272.5846354159
 10
608.9201923824
 20
-268.2007317027
 10
609.3262478096
 20
-263.671601927
 10
609.5295200936
 20
-259.0081446884
 10
609.5295200936
 20
-254.2215818232
 10
609.3262478096
 20
-249.323431401
 10
608.9201923824
 20
-244.3254800083
 10
608.3123309173
 20
-239.2397543861
 10
607.504126132
 20
-234.0784924897
 10
606.4975228372
 20
-228.8541140397
 10
605.2949432568
 20
-223.5791906362
 10
603.8992811991
 20
-218.2664155075
 10
602.3138950933
 20
-212.9285729658
 10
600.5425999082
 20
-207.5785076436
 10
598.5896579719
 20
-202.2290935859
 10
596.459768715
 20
-196.8932032702
 10
594.1580573629
 20
-191.5836766315
 10
591.6900626022
 20
-186.3132901651
 10
589.0617232528
 20
-181.0947261817
 10
586.2793639775
 20
-175.9405422899
 10
583.3496800624
 20
-170.8631411785
 10
580.2797213058
 20
-165.874740771
 10
577.0768750543
 20
-160.9873448256
 10
573.7488484262
 20
-156.2127140499
 10
570.3036497655
 20
-151.5623378009
 10
566.7495693713
 20
-147.0474064378
 10
563.0951595487
 20
-142.678784394
 10
559.3492140286
 20
-138.4669840337
 10
555.5207468077
 20
-134.4221403561
 10
551.6189704573
 20
-130.5539866065
 10
547.6532739551
 20
-126.8718308552
 10
543.6332000917
 20
-123.3845335994
 10
539.5684225083
 20
-120.1004864414
 10
535.4687224179
 20
-117.027591896
 10
531.3439650686
 20
-114.1732443743
 10
527.204076005
 20
-111.5443123901
 10
523.0590171833
 20
-109.1471220322
 10
518.9187630001
 20
-106.9874417416
 10
514.7932762903
 20
-105.0704684306
 10
510.6924843535
 20
-103.4008149776
 10
506.6262550651
 20
-101.9824991266
 10
502.6043731317
 20
-100.8189338195
 10
498.6365165448
 20
-99.9129189833
 10
494.7322332933
 20
-99.2666347922
 10
490.9009183872
 20
-98.8816364222
 10
487.1517912503
 20
-98.7588503078
 10
483.4938735353
 20
-98.8985719134
 10
479.9359674143
 20
-99.3004650223
 10
476.4866343983
 20
-99.9635625453
 10
473.1541747352
 20
-100.8862688482
 10
469.9466074362
 20
-102.0663635913
 10
466.8716509801
 20
-103.5010070724
 10
463.9367047396
 20
-105.1867470599
 10
461.148831176
 20
-107.1195271002
 10
458.5147388445
 20
-109.2946962785
 10
456.0407662515
 20
-111.7070204112
 10
453.7328666017
 20
-114.3506946404
 10
451.5965934727
 20
-117.2193574023
 10
449.6370874515
 20
-120.3061057361
 10
447.8590637644
 20
-123.6035118938
 10
446.2668009304
 20
-127.1036412143
 10
444.8641304658
 20
-130.7980712172
 10
443.6544276647
 20
-134.6779118693
 10
442.640603476
 20
-138.7338269776
 10
441.8250974995
 20
-142.9560566552
 10
441.2098721151
 20
-147.3344408068
 10
440.7964077606
 20
-151.858443577
  0
LINE
  5
125
330
1F
100
AcDbEntity
  8
0
  6
Continuous
 62
     7
370
    25
100
AcDbLine
 10
440.7964077606
 20
-166.5561781909
 30
0.0
 11
327.6593227707
 21
-231.8688271368
 31
0.0
  0
LWPOLYLINE
  5
126
330
1F
100
AcDbEntity
  8
0
  6
Continuous
 62
     7
370
    25
100
AcDbPolyline
 90
       48
 70
   128
 43
0.0
 10
327.6593227707
 20
-231.8688271368
 10
328.0727871252
 20
-236.8702056894
 10
328.6880125096
 20
-241.9589139501
 10
329.5035184861
 20
-247.1227067865
 10
330.5173426748
 20
-252.3491583875
 10
331.727045476
 20
-257.6256921644
 10
333.1297159405
 20
-262.9396110138
 10
334.7219787745
 20
-268.2781278714
 10
336.5000024617
 20
-273.6283964818
 10
338.4595084828
 20
-278.9775423111
 10
340.5957816118
 20
-284.3126935271
 10
342.9036812617
 20
-289.6210119734
 10
345.3776538546
 20
-294.889724062
 10
348.0117461861
 20
-300.1061515113
 10
350.7996197498
 20
-305.2577418538
 10
353.7345659903
 20
-310.3320986419
 10
356.8095224464
 20
-315.3170112776
 10
360.0170897453
 20
-320.2004843955
 10
363.3495494085
 20
-324.9707667275
 10
366.7988824245
 20
-329.6163793805
 10
370.3567885454
 20
-334.1261434582
 10
374.0147062605
 20
-338.4892069613
 10
377.7638333973
 20
-342.6950709012
 10
381.5951483034
 20
-346.733614564
 10
385.499431555
 20
-350.5951198641
 10
389.4672881418
 20
-354.2702947297
 10
393.4891700753
 20
-357.7502954619
 10
397.5553993636
 20
-361.0267480163
 10
401.6561913005
 20
-364.0917681532
 10
405.7816780102
 20
-366.9379804101
 10
409.9219321934
 20
-369.5585358492
 10
414.0669910151
 20
-371.9471285385
 10
418.2068800788
 20
-374.098010726
 10
422.331637428
 20
-376.0060066704
 10
426.4313375185
 20
-377.666525096
 10
430.4961151019
 20
-379.0755702405
 10
434.5161889652
 20
-380.2297514706
 10
438.4818854675
 20
-381.1262914406
 10
442.3836618179
 20
-381.7630327758
 10
446.2121290388
 20
-382.1384432636
 10
449.9580745588
 20
-382.2516195411
 10
453.6124843815
 20
-382.1022892684
 10
457.1665647756
 20
-381.6908117839
 10
460.6117634364
 20
-381.01817724
 10
463.9397900645
 20
-380.0860042201
 10
467.142636316
 20
-378.896535844
 10
470.2125950725
 20
-377.4526343701
 10
471.6637395325
 20
-376.6546415202
  0
LWPOLYLINE
  5
127
330
1F
100
AcDbEntity
  8
0
  6
Continuous
 62
     7
370
    25
100
AcDbPolyline
 90
       13
 70
   128
 43
0.0
 10
352.1734509825
 20
-169.6689634112
 10
350.7996197498
 20
-170.4993960057
 10
348.0117461861
 20
-172.432176046
 10
345.3776538546
 20
-174.6073452244
 10
342.9036812617
 20
-177.0196693571
 10
340.5957816118
 20
-179.6633435862
 10
338.4595084828
 20
-182.5320063482
 10
336.5000024617
 20
-185.6187546819
 10
334.7219787745
 20
-188.9161608396
 10
333.1297159405
 20
-192.4162901602
 10
331.727045476
 20
-196.110720163
 10
330.5173426748
 20
-199.9905608151
 10
329.5510253917
 20
-203.8329141675
  0
LINE
  5
128
330
1F
100
AcDbEntity
  8
0
  6
Continuous
 62
     7
370
    25
100
AcDbLine
 10
363.0710543186
 20
-212.3077198438
 30
0.0
 11
405.4974611898
 21
-187.8154764891
 31
0.0
  0
LWPOLYLINE
  5
129
330
1F
100
AcDbEntity
  8
0
  6
Continuous
 62
     7
370
    25
100
AcDbPolyline
 90
       43
 70
   128
 43
0.0
 10
493.8294163496
 20
-361.0584668238
 10
490.2978748573
 20
-361.5700484339
 10
486.6617926332
 20
-361.8172200408
 10
482.9300047282
 20
-361.7993810602
 10
479.1115787411
 20
-361.5165748377
 10
475.2157927865
 20
-360.9694885437
 10
471.2521129502
 20
-360.159451503
 10
467.2301702883
 20
-359.0884319655
 10
463.1597374258
 20
-357.7590323235
 10
459.0507048103
 20
-356.174482788
 10
454.91305668
 20
-354.3386335403
 10
450.756846804
 20
-352.2559453764
 10
446.5921740533
 20
-349.9314788682
 10
442.4291578621
 20
-347.3708820672
 10
438.2779136394
 20
-344.5803767805
 10
434.1485281905
 20
-341.5667434532
 10
430.0510352077
 20
-338.3373046929
 10
425.9953908898
 20
-334.8999074771
 10
421.9914497509
 20
-331.2629040862
 10
418.0489406753
 20
-327.4351318092
 10
414.1774432779
 20
-323.4258914706
 10
410.3863646275
 20
-319.2449248305
 10
406.6849163893
 20
-314.9023909148
 10
403.0820924422
 20
-310.4088413293
 10
399.5866470249
 20
-305.7751946222
 10
396.2070734651
 20
-301.0127097532
 10
392.9515835419
 20
-296.1329587367
 10
389.8280875324
 20
-291.1477985232
 10
386.8441749917
 20
-286.0693421897
 10
384.0070963108
 20
-280.9099295063
 10
381.3237451001
 20
-275.6820969533
 10
378.8006414388
 20
-270.3985472592
 10
376.4439160323
 20
-265.0721185356
 10
374.2592953155
 20
-259.7157530829
 10
372.2520875389
 20
-254.3424659422
 10
370.42716987
 20
-248.9653132718
 10
368.7889765431
 20
-243.5973606222
 10
367.3414880844
 20
-238.2516511896
 10
366.0882216405
 20
-232.9411741232
 10
365.0322224321
 20
-227.6788329634
 10
364.1760563545
 20
-222.4774142886
 10
363.5218037431
 20
-217.3495566465
 10
363.0710543186
 20
-212.3077198438
  0
LINE
  5
12A
330
1F
100
AcDbEntity
  8
0
  6
Continuous
 62
     7
370
    25
100
AcDbLine
 10
536.2558232208
 20
-336.5662234691
 30
0.0
 11
493.8294163496
 21
-361.0584668238
 31
0.0
  0
LWPOLYLINE
  5
12B
330
1F
100
AcDbEntity
  8
0
  6
Continuous
 62
     7
370
    25
100
AcDbPolyline
 90
       43
 70
   128
 43
0.0
 10
405.4974611898
 20
-187.8154764891
 10
405.9482106143
 20
-192.8573132918
 10
406.6024632257
 20
-197.9851709339
 10
407.4586293033
 20
-203.1865896087
 10
408.5146285117
 20
-208.4489307685
 10
409.7678949556
 20
-213.759407835
 10
411.2153834142
 20
-219.1051172675
 10
412.8535767412
 20
-224.4730699171
 10
414.6784944101
 20
-229.8502225875
 10
416.6857021867
 20
-235.2235097282
 10
418.8703229035
 20
-240.579875181
 10
421.22704831
 20
-245.9063039045
 10
423.7501519713
 20
-251.1898535986
 10
426.433503182
 20
-256.4176861517
 10
429.2705818629
 20
-261.577098835
 10
432.2544944036
 20
-266.6555551686
 10
435.3779904131
 20
-271.640715382
 10
438.6334803363
 20
-276.5204663985
 10
442.0130538961
 20
-281.2829512675
 10
445.5084993134
 20
-285.9165979746
 10
449.1113232605
 20
-290.4101475601
 10
452.8127714987
 20
-294.7526814759
 10
456.6038501491
 20
-298.9336481159
 10
460.4753475465
 20
-302.9428884546
 10
464.4178566221
 20
-306.7706607315
 10
468.421797761
 20
-310.4076641224
 10
472.4774420789
 20
-313.8450613383
 10
476.5749350617
 20
-317.0745000985
 10
480.7043205106
 20
-320.0881334258
 10
484.8555647333
 20
-322.8786387125
 10
489.0185809245
 20
-325.4392355135
 10
493.1832536752
 20
-327.7637020217
 10
497.3394635512
 20
-329.8463901856
 10
501.4771116815
 20
-331.6822394333
 10
505.586144297
 20
-333.2667889688
 10
509.6565771595
 20
-334.5961886108
 10
513.6785198214
 20
-335.6672081483
 10
517.6421996577
 20
-336.477245189
 10
521.5379856123
 20
-337.0243314831
 10
525.3564115994
 20
-337.3071377055
 10
529.0881995044
 20
-337.3249766861
 10
532.7242817285
 20
-337.0778050792
 10
536.2558232208
 20
-336.5662234691
  0
SPLINE
  5
12C
330
1F
100
AcDbEntity
  8
0
  6
Continuous
 62
     7
370
    25
100
AcDbSpline
210
0.0
220
0.0
230
1.0
 70
    11
 71
     3
 72
    99
 73
    95
 74
     0
 42
0.00000001
 43
0.00000001
 40
0.0
 40
0.0
 40
0.0
 40
0.0
 40
0.0312499999999999
 40
0.0312499999999999
 40
0.0468749999999998
 40
0.0468749999999998
 40
0.0624999999999997
 40
0.0624999999999997
 40
0.0937499999999996
 40
0.0937499999999996
 40
0.1093749999999996
 40
0.1093749999999996
 40
0.1249999999999995
 40
0.1249999999999995
 40
0.1562499999999994
 40
0.1562499999999994
 40
0.1718749999999994
 40
0.1718749999999994
 40
0.1874999999999993
 40
0.2031249999999992
 40
0.2031249999999992
 40
0.2187499999999992
 40
0.2187499999999992
 40
0.2499999999999991
 40
0.2499999999999991
 40
0.265624999999999
 40
0.265624999999999
 40
0.2812499999999989
 40
0.2812499999999989
 40
0.3124999999999988
 40
0.3124999999999988
 40
0.3281249999999988
 40
0.3281249999999988
 40
0.3437499999999988
 40
0.3437499999999988
 40
0.3749999999999988
 40
0.3749999999999988
 40
0.4062499999999988
 40
0.4062499999999988
 40
0.4218749999999988
 40
0.4218749999999988
 40
0.4374999999999988
 40
0.4374999999999988
 40
0.4687499999999989
 40
0.4687499999999989
 40
0.4843749999999989
 40
0.4843749999999989
 40
0.499999999999999
 40
0.499999999999999
 40
0.5312499999999991
 40
0.5312499999999991
 40
0.5468749999999991
 40
0.5468749999999991
 40
0.5624999999999991
 40
0.5781249999999992
 40
0.5781249999999992
 40
0.5937499999999992
 40
0.5937499999999992
 40
0.6249999999999993
 40
0.6249999999999993
 40
0.6406249999999993
 40
0.6406249999999993
 40
0.6562499999999993
 40
0.6562499999999993
 40
0.6874999999999993
 40
0.6874999999999993
 40
0.7031249999999993
 40
0.7031249999999993
 40
0.7187499999999994
 40
0.7187499999999994
 40
0.7499999999999994
 40
0.7499999999999994
 40
0.7812499999999996
 40
0.7812499999999996
 40
0.7968749999999997
 40
0.7968749999999997
 40
0.8124999999999997
 40
0.8124999999999997
 40
0.8437499999999997
 40
0.8437499999999997
 40
0.8593749999999997
 40
0.8593749999999997
 40
0.8749999999999997
 40
0.8749999999999997
 40
0.9062499999999998
 40
0.9062499999999998
 40
0.9218749999999998
 40
0.9218749999999998
 40
0.9374999999999999
 40
0.9531249999999999
 40
0.9531249999999999
 40
0.9687499999999999
 40
0.9687499999999999
 40
1.0
 40
1.0
 40
1.0
 40
1.0
 10
477.6795259078567
 20
-154.5666634486518
 30
0.0
 10
478.2873631331117
 20
-154.2157664875639
 30
0.0
 10
478.8252461978733
 20
-153.8282374136899
 30
0.0
 10
479.5315269886374
 20
-153.1949588332749
 30
0.0
 10
479.7500717129474
 20
-152.9751496989417
 30
0.0
 10
480.1526408478672
 20
-152.5179842464681
 30
0.0
 10
480.3368811678853
 20
-152.2799181075875
 30
0.0
 10
480.825423192332
 20
-151.5552882168845
 30
0.0
 10
481.0708267816046
 20
-151.0537121697882
 30
0.0
 10
481.3196715389183
 20
-150.276660526235
 30
0.0
 10
481.3827553493184
 20
-150.0124248505147
 30
0.0
 10
481.4665724445863
 20
-149.4808862744272
 30
0.0
 10
481.4871815376815
 20
-149.2155698613213
 30
0.0
 10
481.4870499729466
 20
-148.4217583832272
 30
0.0
 10
481.4049462442136
 20
-147.8953740024506
 30
0.0
 10
481.155482894383
 20
-147.113425618293
 30
0.0
 10
481.0510166690433
 20
-146.8546346396067
 30
0.0
 10
480.8042271386334
 20
-146.35145174615
 30
0.0
 10
480.5187635062694
 20
-145.8597910005297
 30
0.0
 10
480.1569743075808
 20
-145.3917096271388
 30
0.0
 10
479.7564216113536
 20
-144.9359555811671
 30
0.0
 10
479.5354004624813
 20
-144.7130773028964
 30
0.0
 10
478.8225527290217
 20
-144.0737095701517
 30
0.0
 10
478.2843067811324
 20
-143.6875446945972
 30
0.0
 10
477.3847406915346
 20
-143.1675966490147
 30
0.0
 10
477.0694088527942
 20
-143.0042207276643
 30
0.0
 10
476.4068145876369
 20
-142.6979205951197
 30
0.0
 10
476.0620378868153
 20
-142.5562978505085
 30
0.0
 10
475.0015255044556
 20
-142.1703507511187
 30
0.0
 10
474.2546259764065
 20
-141.9621683146538
 30
0.0
 10
473.0739866955571
 20
-141.7221284836692
 30
0.0
 10
472.6681856688043
 20
-141.6540285689207
 30
0.0
 10
471.851767289737
 20
-141.5446133096066
 30
0.0
 10
471.4400574936478
 20
-141.502926261281
 30
0.0
 10
470.1946185378604
 20
-141.4152772436391
 30
0.0
 10
469.3502588341316
 20
-141.4064102527762
 30
0.0
 10
467.6345160321353
 20
-141.4872267795779
 30
0.0
 10
466.7907643248379
 20
-141.5755157580665
 30
0.0
 10
465.5452626506025
 20
-141.7736152945726
 30
0.0
 10
465.1334753818988
 20
-141.8506827918902
 30
0.0
 10
464.3167894383301
 20
-142.0269009767022
 30
0.0
 10
463.9108817921944
 20
-142.1264617910085
 30
0.0
 10
462.7300475252268
 20
-142.451401251681
 30
0.0
 10
461.9829764138301
 20
-142.7043409494995
 30
0.0
 10
460.9221245873226
 20
-143.1359251689595
 30
0.0
 10
460.5773456949643
 20
-143.2891423893712
 30
0.0
 10
459.9140227439979
 20
-143.6110347957386
 30
0.0
 10
459.598351310369
 20
-143.7782070814028
 30
0.0
 10
458.697814999283
 20
-144.2977337031145
 30
0.0
 10
458.1589872992815
 20
-144.6678687975931
 30
0.0
 10
457.4452744763905
 20
-145.2603084828778
 30
0.0
 10
457.2238489460411
 20
-145.4638187379741
 30
0.0
 10
456.8225135294628
 20
-145.8746641755864
 30
0.0
 10
456.4599391983736
 20
-146.2915209320341
 30
0.0
 10
456.1736933419189
 20
-146.7209644196537
 30
0.0
 10
455.9261264759995
 20
-147.1572517686502
 30
0.0
 10
455.8212748576518
 20
-147.3800609080028
 30
0.0
 10
455.57081368368
 20
-148.0495651242775
 30
0.0
 10
455.4879564168083
 20
-148.496115731112
 30
0.0
 10
455.4867373876531
 20
-149.1697414838207
 30
0.0
 10
455.50699081736
 20
-149.3949191756122
 30
0.0
 10
455.5901413588942
 20
-149.8471970695242
 30
0.0
 10
455.6528283896656
 20
-150.0722866818654
 30
0.0
 10
455.900530362673
 20
-150.7378016822031
 30
0.0
 10
456.1451656821198
 20
-151.1717604238711
 30
0.0
 10
456.6326520630224
 20
-151.8109233618801
 30
0.0
 10
456.8165574329145
 20
-152.0230614548256
 30
0.0
 10
457.218432736168
 20
-152.4354545240437
 30
0.0
 10
457.4366347874374
 20
-152.6363309677413
 30
0.0
 10
458.1418935003958
 20
-153.2237584326371
 30
0.0
 10
458.6791034684904
 20
-153.5953068248911
 30
0.0
 10
459.8934099670009
 20
-154.2974582504962
 30
0.0
 10
460.5505199386819
 20
-154.6164559383808
 30
0.0
 10
461.6068906166741
 20
-155.0475999102768
 30
0.0
 10
461.9709485688031
 20
-155.1833870563261
 30
0.0
 10
462.7234688933371
 20
-155.4384845088013
 30
0.0
 10
463.1131269716173
 20
-155.5579945816395
 30
0.0
 10
464.2937022530735
 20
-155.8833054534457
 30
0.0
 10
465.1036948163433
 20
-156.0591080133956
 30
0.0
 10
466.3529268846446
 20
-156.2589979135059
 30
0.0
 10
466.7768030583609
 20
-156.3150812258244
 30
0.0
 10
467.6286184242038
 20
-156.4036079357604
 30
0.0
 10
468.053357699734
 20
-156.4358202417169
 30
0.0
 10
469.3242362612297
 20
-156.496551471222
 30
0.0
 10
470.167067785638
 20
-156.489518607639
 30
0.0
 10
471.4247473404652
 20
-156.4023529210953
 30
0.0
 10
471.8419744260783
 20
-156.3603217703508
 30
0.0
 10
472.6559543240144
 20
-156.2518435025789
 30
0.0
 10
473.4540891525334
 20
-156.1186888405857
 30
0.0
 10
474.2210013392334
 20
-155.9359484939741
 30
0.0
 10
474.9720769058599
 20
-155.7276520205913
 30
0.0
 10
475.3413235377239
 20
-155.6101044033738
 30
0.0
 10
476.4109866170204
 20
-155.2219470578759
 30
0.0
 10
477.0716886826017
 20
-154.9175604097397
 30
0.0
 10
477.6795259078567
 20
-154.5666634486518
 30
0.0
  0
LINE
  5
12D
330
1F
100
AcDbEntity
  8
0
  6
Continuous
 62
     7
370
    25
100
AcDbLine
 10
445.5187391445
 20
-160.3003731405
 30
0.0
 11
442.6898522834
 21
-161.9334547643
 31
0.0
  0
ARC
  5
12E
330
1F
100
AcDbEntity
  8
0
  6
Continuous
 62
     7
370
    25
100
AcDbCircle
 10
424.1856371278
 20
-323.1570609189
 30
0.0
 40
67.09079205870599
100
AcDbArc
 50
331.2260296716
 51
356.9922005692
  0
LINE
  5
12F
330
1F
100
AcDbEntity
  8
0
  6
Continuous
 62
     7
370
    25
100
AcDbLine
 10
493.8294163496
 20
-354.1138630867
 30
0.0
 11
523.1686267359
 21
-337.1766974484
 31
0.0
  0
LWPOLYLINE
  5
130
330
1F
100
AcDbEntity
  8
0
  6
Continuous
 62
     7
370
    25
100
AcDbPolyline
 90
       42
 70
   128
 43
0.0
 10
368.0393143581
 20
-215.175835315
 10
368.5071333724
 20
-220.1350383356
 10
369.1829194122
 20
-225.1803584659
 10
370.064888208
 20
-230.2984746088
 10
371.1507111084
 20
-235.4758734644
 10
372.4375212282
 20
-240.6988852096
 10
373.9219210185
 20
-245.9537195901
 10
375.5999912365
 20
-251.2265023305
 10
377.4673012939
 20
-256.503311767
 10
379.5189209546
 20
-261.7702156036
 10
381.7494333523
 20
-267.0133076984
 10
384.1529492922
 20
-272.2187447791
 10
386.7231228004
 20
-277.3727829936
 10
389.4531678791
 20
-282.4618141974
 10
392.3358764235
 20
-287.4724018836
 10
395.3636372534
 20
-292.3913166583
 10
398.5284562087
 20
-297.2055711709
 10
401.8219772564
 20
-301.9024544036
 10
405.235504553
 20
-306.469565233
 10
408.7600254039
 20
-310.8948451719
 10
412.3862340596
 20
-315.1666102075
 10
416.1045562857
 20
-319.2735816506
 10
419.9051746411
 20
-323.2049159145
 10
423.7780543994
 20
-326.9502331452
 10
427.7129700435
 20
-330.4996446273
 10
431.6995322635
 20
-333.8437788927
 10
435.7272153875
 20
-336.9738064646
 10
439.785385173
 20
-339.8814631692
 10
443.8633268836
 20
-342.5590719558
 10
447.9502735796
 20
-344.9995631668
 10
452.0354345451
 20
-347.1964932027
 10
456.1080237797
 20
-349.144061536
 10
460.1572884753
 20
-350.8371260256
 10
464.1725374078
 20
-352.2712164942
 10
468.1431691643
 20
-353.44254653
 10
472.058700134
 20
-354.3480234845
 10
475.9087921884
 20
-354.9852566382
 10
479.683279976
 20
-355.3525635119
 10
483.3721977629
 20
-355.4489743098
 10
486.9658057443
 20
-355.2742344797
 10
490.4546157607
 20
-354.828805385
 10
493.8294163496
 20
-354.1138630867
  0
LINE
  5
131
330
1F
100
AcDbEntity
  8
0
  6
Continuous
 62
     7
370
    25
100
AcDbLine
 10
405.9931903064
 20
-193.2655291041
 30
0.0
 11
368.0393143581
 21
-215.175835315
 31
0.0
  0
LINE
  5
132
330
1F
100
AcDbEntity
  8
0
  6
Continuous
 62
     7
370
    25
100
AcDbLine
 10
430.1898060428
 20
-154.7173316691
 30
0.0
 11
317.0527210529
 21
-220.0299806149
 31
0.0
  0
LINE
  5
133
330
1F
100
AcDbEntity
  8
0
  6
Continuous
 62
     7
370
    25
100
AcDbLine
 10
430.1898060428
 20
-160.4331173523
 30
0.0
 11
317.0527210529
 21
-225.7457662981
 31
0.0
  0
LINE
  5
134
330
1F
100
AcDbEntity
  8
0
  6
Continuous
 62
     7
370
    25
100
AcDbLine
 10
317.0527210529
 20
-220.0299806149
 30
0.0
 11
317.0527210529
 21
-225.7457662981
 31
0.0
  0
LINE
  5
135
330
1F
100
AcDbEntity
  8
0
  6
Continuous
 62
     7
370
    25
100
AcDbLine
 10
317.0527210529
 20
-225.7457662981
 30
0.0
 11
327.6593227707
 21
-231.8688271368
 31
0.0
  0
LINE
  5
136
330
1F
100
AcDbEntity
  8
0
  6
Continuous
 62
     7
370
    25
100
AcDbLine
 10
430.1898060428
 20
-151.4511684215
 30
0.0
 11
317.0527210529
 21
-216.7638173673
 31
0.0
  0
LINE
  5
137
330
1F
100
AcDbEntity
  8
0
  6
Continuous
 62
     7
370
    25
100
AcDbLine
 10
317.0527210529
 20
-216.7638173673
 30
0.0
 11
319.881607914
 21
-218.3968989911
 31
0.0
  0
LINE
  5
138
330
1F
100
AcDbEntity
  8
0
  6
Continuous
 62
     7
370
    25
100
AcDbLine
 10
430.1898060428
 20
-145.7353827383
 30
0.0
 11
317.0527210529
 21
-211.0480316841
 31
0.0
  0
LINE
  5
139
330
1F
100
AcDbEntity
  8
0
  6
Continuous
 62
     7
370
    25
100
AcDbLine
 10
317.0527210529
 20
-211.0480316841
 30
0.0
 11
317.0527210529
 21
-216.7638173673
 31
0.0
  0
LINE
  5
13A
330
1F
100
AcDbEntity
  8
0
  6
Continuous
 62
     7
370
    25
100
AcDbLine
 10
368.0393143581
 20
-215.175835315
 30
0.0
 11
363.0710543186
 21
-212.3077198438
 31
0.0
  0
LINE
  5
13B
330
1F
100
AcDbEntity
  8
0
  6
Continuous
 62
     7
370
    25
100
AcDbLine
 10
493.8294163496
 20
-361.0584668238
 30
0.0
 11
493.8294163496
 21
-354.1138630867
 31
0.0
  0
ARC
  5
13C
330
1F
100
AcDbEntity
  8
0
  6
Continuous
 62
     7
370
    25
100
AcDbCircle
 10
514.4701606221
 20
-102.4431344518
 30
0.0
 40
3.501770879862345
100
AcDbArc
 50
114.1971139655
 51
174.4827450769
  0
LWPOLYLINE
  5
13D
330
1F
100
AcDbEntity
  8
0
  6
Continuous
 62
     7
370
    25
100
AcDbPolyline
 90
       13
 70
   128
 43
0.0
 10
524.9846124355
 20
-102.1064548803
 10
524.9285226748
 20
-101.5959188515
 10
524.608358019
 20
-100.7994374511
 10
524.0170164407
 20
-100.0564654979
 10
523.1787075336
 20
-99.3974203508
 10
522.127751763
 20
-98.8492833957
 10
520.9071753815
 20
-98.4344954239
 10
519.5669489296
 20
-98.1700379037
 10
518.1619414357
 20
-98.0667377569
 10
516.7496740717
 20
-98.1288241039
 10
515.3879652294
 20
-98.3537551222
 10
514.1325634288
 20
-98.7323221095
 10
513.0348649672
 20
-99.249026489
  0
LWPOLYLINE
  5
13E
330
1F
100
AcDbEntity
  8
0
  6
Continuous
 62
     7
370
    25
100
AcDbPolyline
 90
       15
 70
   128
 43
0.0
 10
457.1734292534
 20
-97.2036271073
 10
458.7823457114
 20
-96.3913699832
 10
460.5644444132
 20
-95.7101581834
 10
462.4879237653
 20
-95.1721479488
 10
464.5184592331
 20
-94.7869400846
 10
466.6198158632
 20
-94.5614086344
 10
468.7544948966
 20
-94.4995782121
 10
470.8844029354
 20
-94.6025521833
 10
472.9715317203
 20
-94.8684929749
 10
474.9786363885
 20
-95.2926548671
 10
476.8699001098
 20
-95.867468681
 10
478.6115732383
 20
-96.5826768505
 10
480.1725755756
 20
-97.4255164688
 10
481.5250509982
 20
-98.3809470429
 10
482.2349164725
 20
-99.0096384926
  0
ARC
  5
13F
330
1F
100
AcDbEntity
  8
0
  6
Continuous
 62
     7
370
    25
100
AcDbCircle
 10
460.5040478564
 20
-104.5402801146
 30
0.0
 40
8.057263656336145
100
AcDbArc
 50
114.4166120662
 51
174.2632469762
  0
ENDSEC
  0
SECTION
  2
OBJECTS
  0
DICTIONARY
  5
C
330
0
100
AcDbDictionary
281
     1
  3
ACAD_GROUP
350
D
  3
ACAD_LAYOUT
350
1A
  3
ACAD_MLINESTYLE
350
17
  3
ACAD_PLOTSETTINGS
350
19
  3
ACAD_PLOTSTYLENAME
350
E
  3
ACAD_SCALELIST
350
47
  3
DWGPROPS
350
140
  0
DICTIONARY
  5
D
102
{ACAD_REACTORS
330
C
102
}
330
C
100
AcDbDictionary
281
     1
  0
DICTIONARY
  5
1A
102
{ACAD_REACTORS
330
C
102
}
330
C
100
AcDbDictionary
281
     1
  3
Layout1
350
1E
  3
Layout2
350
26
  3
Model
350
22
  0
DICTIONARY
  5
17
102
{ACAD_REACTORS
330
C
102
}
330
C
100
AcDbDictionary
281
     1
  3
Standard
350
18
  0
DICTIONARY
  5
19
102
{ACAD_REACTORS
330
C
102
}
330
C
100
AcDbDictionary
281
     1
  0
ACDBDICTIONARYWDFLT
  5
E
102
{ACAD_REACTORS
330
C
102
}
330
C
100
AcDbDictionary
281
     1
  3
Normal
350
F
100
AcDbDictionaryWithDefault
340
F
  0
DICTIONARY
  5
47
102
{ACAD_REACTORS
330
C
102
}
330
C
100
AcDbDictionary
281
     1
  3
A0
350
48
  3
A1
350
49
  3
A2
350
4A
  3
A3
350
4B
  3
A4
350
4C
  3
A5
350
4D
  3
A6
350
4E
  3
A7
350
4F
  3
A8
350
50
  3
A9
350
51
  3
B0
350
52
  3
B1
350
53
  3
B2
350
54
  3
B3
350
55
  3
B4
350
56
  3
B5
350
57
  3
B6
350
58
  3
B7
350
59
  3
B8
350
5A
  3
B9
350
5B
  3
C0
350
5C
  3
C1
350
5D
  3
C2
350
5E
  3
C3
350
5F
  3
C4
350
60
  3
C5
350
61
  3
C6
350
62
  3
C7
350
63
  3
C8
350
64
  3
C9
350
65
  3
D0
350
66
  3
D1
350
67
  3
D2
350
68
  0
XRECORD
  5
140
102
{ACAD_REACTORS
330
C
102
}
330
C
100
AcDbXrecord
280
     1
  1
DWGPROPS COOKIE
  2

  3

  4

  6

  7

  8
b.kav
  9

300
=
301
=
302
=
303
=
304
=
305
=
306
=
307
=
308
=
309
=
 40
0.0
 41
2459741.489600463
 42
2459741.489600648
  1

 90
        0
  0
LAYOUT
  5
1E
102
{ACAD_REACTORS
330
1A
102
}
330
1A
100
AcDbPlotSettings
  1

  2
none_device
  4

  6

 40
0.0
 41
0.0
 42
0.0
 43
0.0
 44
0.0
 45
0.0
 46
0.0
 47
0.0
 48
0.0
 49
0.0
140
0.0
141
0.0
142
1.0
143
1.0
 70
   688
 72
     1
 73
     0
 74
     5
  7

 75
    16
147
1.0
148
0.0
149
0.0
100
AcDbLayout
  1
Layout1
 70
     1
 71
     1
 10
0.0
 20
0.0
 11
420.0
 21
297.0
 12
0.0
 22
0.0
 32
0.0
 14
1.0000000000E+20
 24
1.0000000000E+20
 34
1.0000000000E+20
 15
-1.0000000000E+20
 25
-1.0000000000E+20
 35
-1.0000000000E+20
146
0.0
 13
0.0
 23
0.0
 33
0.0
 16
1.0
 26
0.0
 36
0.0
 17
0.0
 27
1.0
 37
0.0
 76
     0
330
1B
  0
LAYOUT
  5
26
102
{ACAD_REACTORS
330
1A
102
}
330
1A
100
AcDbPlotSettings
  1

  2
none_device
  4

  6

 40
0.0
 41
0.0
 42
0.0
 43
0.0
 44
0.0
 45
0.0
 46
0.0
 47
0.0
 48
0.0
 49
0.0
140
0.0
141
0.0
142
1.0
143
1.0
 70
   688
 72
     1
 73
     0
 74
     5
  7

 75
    16
147
1.0
148
0.0
149
0.0
100
AcDbLayout
  1
Layout2
 70
     1
 71
     2
 10
0.0
 20
0.0
 11
0.0
 21
0.0
 12
0.0
 22
0.0
 32
0.0
 14
0.0
 24
0.0
 34
0.0
 15
0.0
 25
0.0
 35
0.0
146
0.0
 13
0.0
 23
0.0
 33
0.0
 16
1.0
 26
0.0
 36
0.0
 17
0.0
 27
1.0
 37
0.0
 76
     0
330
23
  0
LAYOUT
  5
22
102
{ACAD_REACTORS
330
1A
102
}
330
1A
100
AcDbPlotSettings
  1

  2
none_device
  4
Letter_(8.50_x_11.00_Inches)
  6

 40
6.35
 41
6.35
 42
6.35000508
 43
6.35000508
 44
215.9
 45
279.4
 46
0.0
 47
0.0
 48
0.0
 49
0.0
140
0.0
141
0.0
142
1.0
143
1.0
 70
  1712
 72
     1
 73
     0
 74
     0
  7

 75
     0
147
1.0
148
0.0
149
0.0
100
AcDbLayout
  1
Model
 70
     1
 71
     0
 10
0.0
 20
0.0
 11
279.4
 21
215.9
 12
0.0
 22
0.0
 32
0.0
 14
0.0
 24
0.0
 34
0.0
 15
279.4
 25
215.9
 35
0.0
146
0.0
 13
0.0
 23
0.0
 33
0.0
 16
1.0
 26
0.0
 36
0.0
 17
0.0
 27
1.0
 37
0.0
 76
     0
330
1F
331
29
  0
MLINESTYLE
  5
18
102
{ACAD_REACTORS
330
17
102
}
330
17
100
AcDbMlineStyle
  2
Standard
 70
     0
  3

 62
   256
 51
90.0
 52
90.0
 71
     2
 49
0.5
 62
   256
  6
BYLAYER
 49
-0.5
 62
   256
  6
BYLAYER
  0
ACDBPLACEHOLDER
  5
F
102
{ACAD_REACTORS
330
E
102
}
330
E
  0
SCALE
  5
48
102
{ACAD_REACTORS
330
47
102
}
330
47
100
AcDbScale
 70
     0
300
1:1
140
1.0
141
1.0
290
     1
  0
SCALE
  5
49
102
{ACAD_REACTORS
330
47
102
}
330
47
100
AcDbScale
 70
     0
300
1:2
140
1.0
141
2.0
290
     0
  0
SCALE
  5
4A
102
{ACAD_REACTORS
330
47
102
}
330
47
100
AcDbScale
 70
     0
300
1:4
140
1.0
141
4.0
290
     0
  0
SCALE
  5
4B
102
{ACAD_REACTORS
330
47
102
}
330
47
100
AcDbScale
 70
     0
300
1:5
140
1.0
141
5.0
290
     0
  0
SCALE
  5
4C
102
{ACAD_REACTORS
330
47
102
}
330
47
100
AcDbScale
 70
     0
300
1:8
140
1.0
141
8.0
290
     0
  0
SCALE
  5
4D
102
{ACAD_REACTORS
330
47
102
}
330
47
100
AcDbScale
 70
     0
300
1:10
140
1.0
141
10.0
290
     0
  0
SCALE
  5
4E
102
{ACAD_REACTORS
330
47
102
}
330
47
100
AcDbScale
 70
     0
300
1:16
140
1.0
141
16.0
290
     0
  0
SCALE
  5
4F
102
{ACAD_REACTORS
330
47
102
}
330
47
100
AcDbScale
 70
     0
300
1:20
140
1.0
141
20.0
290
     0
  0
SCALE
  5
50
102
{ACAD_REACTORS
330
47
102
}
330
47
100
AcDbScale
 70
     0
300
1:30
140
1.0
141
30.0
290
     0
  0
SCALE
  5
51
102
{ACAD_REACTORS
330
47
102
}
330
47
100
AcDbScale
 70
     0
300
1:40
140
1.0
141
40.0
290
     0
  0
SCALE
  5
52
102
{ACAD_REACTORS
330
47
102
}
330
47
100
AcDbScale
 70
     0
300
1:50
140
1.0
141
50.0
290
     0
  0
SCALE
  5
53
102
{ACAD_REACTORS
330
47
102
}
330
47
100
AcDbScale
 70
     0
300
1:100
140
1.0
141
100.0
290
     0
  0
SCALE
  5
54
102
{ACAD_REACTORS
330
47
102
}
330
47
100
AcDbScale
 70
     0
300
2:1
140
2.0
141
1.0
290
     0
  0
SCALE
  5
55
102
{ACAD_REACTORS
330
47
102
}
330
47
100
AcDbScale
 70
     0
300
4:1
140
4.0
141
1.0
290
     0
  0
SCALE
  5
56
102
{ACAD_REACTORS
330
47
102
}
330
47
100
AcDbScale
 70
     0
300
8:1
140
8.0
141
1.0
290
     0
  0
SCALE
  5
57
102
{ACAD_REACTORS
330
47
102
}
330
47
100
AcDbScale
 70
     0
300
10:1
140
10.0
141
1.0
290
     0
  0
SCALE
  5
58
102
{ACAD_REACTORS
330
47
102
}
330
47
100
AcDbScale
 70
     0
300
100:1
140
100.0
141
1.0
290
     0
  0
SCALE
  5
59
102
{ACAD_REACTORS
330
47
102
}
330
47
100
AcDbScale
 70
     0
300
1/128" = 1'-0"
140
0.0078125
141
12.0
290
     0
  0
SCALE
  5
5A
102
{ACAD_REACTORS
330
47
102
}
330
47
100
AcDbScale
 70
     0
300
1/64" = 1'-0"
140
0.015625
141
12.0
290
     0
  0
SCALE
  5
5B
102
{ACAD_REACTORS
330
47
102
}
330
47
100
AcDbScale
 70
     0
300
1/32" = 1'-0"
140
0.03125
141
12.0
290
     0
  0
SCALE
  5
5C
102
{ACAD_REACTORS
330
47
102
}
330
47
100
AcDbScale
 70
     0
300
1/16" = 1'-0"
140
0.0625
141
12.0
290
     0
  0
SCALE
  5
5D
102
{ACAD_REACTORS
330
47
102
}
330
47
100
AcDbScale
 70
     0
300
3/32" = 1'-0"
140
0.09375
141
12.0
290
     0
  0
SCALE
  5
5E
102
{ACAD_REACTORS
330
47
102
}
330
47
100
AcDbScale
 70
     0
300
1/8" = 1'-0"
140
0.125
141
12.0
290
     0
  0
SCALE
  5
5F
102
{ACAD_REACTORS
330
47
102
}
330
47
100
AcDbScale
 70
     0
300
3/16" = 1'-0"
140
0.1875
141
12.0
290
     0
  0
SCALE
  5
60
102
{ACAD_REACTORS
330
47
102
}
330
47
100
AcDbScale
 70
     0
300
1/4" = 1'-0"
140
0.25
141
12.0
290
     0
  0
SCALE
  5
61
102
{ACAD_REACTORS
330
47
102
}
330
47
100
AcDbScale
 70
     0
300
3/8" = 1'-0"
140
0.375
141
12.0
290
     0
  0
SCALE
  5
62
102
{ACAD_REACTORS
330
47
102
}
330
47
100
AcDbScale
 70
     0
300
1/2" = 1'-0"
140
0.5
141
12.0
290
     0
  0
SCALE
  5
63
102
{ACAD_REACTORS
330
47
102
}
330
47
100
AcDbScale
 70
     0
300
3/4" = 1'-0"
140
0.75
141
12.0
290
     0
  0
SCALE
  5
64
102
{ACAD_REACTORS
330
47
102
}
330
47
100
AcDbScale
 70
     0
300
1" = 1'-0"
140
1.0
141
12.0
290
     0
  0
SCALE
  5
65
102
{ACAD_REACTORS
330
47
102
}
330
47
100
AcDbScale
 70
     0
300
1-1/2" = 1'-0"
140
1.5
141
12.0
290
     0
  0
SCALE
  5
66
102
{ACAD_REACTORS
330
47
102
}
330
47
100
AcDbScale
 70
     0
300
3" = 1'-0"
140
3.0
141
12.0
290
     0
  0
SCALE
  5
67
102
{ACAD_REACTORS
330
47
102
}
330
47
100
AcDbScale
 70
     0
300
6" = 1'-0"
140
6.0
141
12.0
290
     0
  0
SCALE
  5
68
102
{ACAD_REACTORS
330
47
102
}
330
47
100
AcDbScale
 70
     0
300
1'-0" = 1'-0"
140
12.0
141
12.0
290
     0
  0
ENDSEC
  0
EOF
